Home » L » Ludacris »

Ludacris - Growing Pains Tabs

Artists:  A B C D E F G H I J K L M N O P Q R S T U V W X Y Z # 

Growing Pains Tabs

(ver. 2) Click to play this song!
Ludacris
Intro/Whole Song chords, pretty sure its right you can also use all three of the top 3 
(9,9,9) for the 3rd chord but i like how it sounds with the 10th fret b string in there:

----14--12--9----9---7--9--7---|
----14--12--10---10--7--10-7---|  X3
----14--13--9----9---7--9--7---|
-------------------------------|
-------------------------------|
-------------------------------|

---5--7---9---2----9--7--5--5-|
---5--7---10--2----10-7--5--5-|
---6--7---9---2----9--7--6--6-|
------------------------------|
------------------------------|
------------------------------|
            
Submit corrections

↑ Back to top | Tablatures and chords for acoustic guitar and electric guitar, ukulele, drums are parodies/interpretations of the original songs. You may use it for private study, scholarship, research or language learning purposes only