Home » L » Lou Reed »

Lou Reed - The View Bass

Artists:  A B C D E F G H I J K L M N O P Q R S T U V W X Y Z # 

The View Bass

(ver. 1) Click to play this song!
Lou Reed
-------------------------------------------------------------------------------
                             The View - Lou Reed And Metallica
-------------------------------------------------------------------------------

okay first thing first, I AM THE TABLE, and second welcome to the view i dont
understand what lou wanted to accomplish but he did something wrong, P.S. the
album sucks we all know tht but i actually played some lulu on my bass and its a
lot funner but whatever js and P.P.S. i know every one says "drop D" but we have 5
strings so we dont have to tune down :D but if u have 4 then just tune BEAD, here is the view


Tuning:Standard

0:00
G|--------|------------------|
D|--------|*----------------*|
A|--------|--------3---------| x17
E|-3--5-5-|*-5-------3--5-5-*|
B|--------|----4-3-----------|

1:58
G|-------------------------|
D|-------------------------|
A|-------3-----------------| x5
E|-5---5-----5---5---5-----|
B|---3-----3-------4---4-3-|

2:17
G|------------------|
D|*----------------*|
A|--------3---------| x13
E|*-5-------3--5-5-*|
B|----4-3-----------|

3:38
G|-------------------------|
D|-------------------------|
A|-------3-----------------| x12
E|-5---5-----5---5---5-----|
B|---3-----3-------4---4-3-|

4:14
G|-----------------|
D|-----------------|
A|-----------------| x12
E|-------2---------|
B|-4-4-3---3-4-4-6-|

4:52
G|------------------|
D|------------------|
A|--------3---------| x2
E|--5-------3--5-5--|
B|----4-3-----------|

well there u go simple enough not a whole lot of room for stuff just during the "4:14" 
part the last note B(6) theres different variations and fills easy enough to follow by 
ear but the rest seems dead on

MeatllicaDMRTL

                            \m/Metallica\m/
            
Submit corrections

↑ Back to top | Tablatures and chords for acoustic guitar and electric guitar, ukulele, drums are parodies/interpretations of the original songs. You may use it for private study, scholarship, research or language learning purposes only