Home » L » Lou Reed »

Lou Reed - The Bed Live Tabs

Artists:  A B C D E F G H I J K L M N O P Q R S T U V W X Y Z # 

The Bed Live Tabs

(ver. 2) Click to play this song!
Lou Reed
[Intro]
-----
       E   D   A     G                 F       G         A
e|-----------------|-----------------|-----------------|-----------------|
b|-----9\7-7---5---|-3-5-575---3-----|-1-3-1---3-5-3---|-5---------------|
g|-----9\7-7---6---|-4-----4---4-----|-2-------4-------|-6---------------|   x2
d|-----9\7-7---7---|-5-----5---5-----|-3-------5-------|-7---------------|
a|-0---------------|-0-------------0-|-0-------0-----0-|-0-----0-0-----0-|
e|-----------------|-----------------|-----------------|-----------------|
 
 
[Verse]
-----
   A                 G                 F       G          A
e|-----------------|-----------------|------------------|------------------|
b|-----------------|-----------------|------------------|------------------|
g|-----------------|-----------------|------------------|------------------|   x2
d|-7---7---7---7---|-5---5---5---57--|\3---3---3h5--5---|-5h7--7---7---75--|
a|-0-0-0-0-0-0-0-0-|-0-0-0-0-0-0-0-0-|-0-0-0-0-0--0-0-0-|-0--0-0-0-0-0-0-0-|
e|-----------------|-----------------|------------------|------------------|
 
   A                  D                 Bm                 D
e|------------------|-----0-2---------|-------- ----------|-----0-2---------|
b|-----0h2------2---|----3--3-----3---|-----3-3-----3----|----3--3-----3---|
g|----2---2-----2---|---2---2-----2---|----4--4-----4----|---2---2-----2---|   x1
d|---2----2-----2---|-0-----0---0-----|---4---4-----4----|-0-----0---0-----|
a|-0------0---0-----|-----------------|-2---------2------|-----------------|
e|------------------|-----------------|------------------|-----------------|
 
 
[Chorus]
------
   Bm      C#m       D       E         A       G  F  G   A
e|-----------------|-----------------|-----------------|-----------------|
b|-----3-------5---|-----7-----------|-5---5---3--1--3-|-5---------------|
g|-----4-------6---|-----7------(7)--|-6---6---4--2--4-|-6---------------|   x2
d|---4-------6-----|---7-------(7)---|-7-------5--3--5-|-7---------------|
a|-2-------4-------|-5--------(7)----|-0---------------|-0-0-0-0-0-0-0-0-|
e|-----------------|---------0-------|-----------------|-----------------|
 
 
[Bridge]
------
   A                                   D
e|-----------------|-----------------|-----2---0---3---|-2-2 ------------|
b|-----0-2---------|-----2---2---2---|-----3---3---3---|-3-3---3---3-----|
g|----2--2-----2---|-----2---2---2---|-----2---2---2---|-2-2---2-2---2---|
d|---2---2---2---2-|---2---2---2---2-|-0---------------|-0-0-------------|
a|-0-----0---------|-0---------------|-----------------|---------------0-|
e|-----------------|-----------------|-----------------|-----------------|
 
   B                                   G                 F
e|-----------------|-----------------|-----------------|-----------------|
b|-----4-----------|-----4-------4---|-----3-3-----3---|-1-----1-1-------|
g|-----4---4---4---|-----4-------4---|-----4-4-----4---|-2-----2-----2---|
d|---4---4---------|---4---4-----4---|---5---------5---|-3-----3-----3---|
a|-2-------2-2-----|-2-------2-------|-0---------0-----|-0-0-------0-0---|
e|-----------------|-----------------|-----------------|-----------------|
 
   G7?               E
e|-----1-----------|--------------~--|
b|----0--0-----0---|------(7)--------|
g|--02-------------|----(7)----------|
d|-0---------------|--(7)------------|
a|-----------------|-----------------|
e|-----------------|-0---------------|
            
Submit corrections

↑ Back to top | Tablatures and chords for acoustic guitar and electric guitar, ukulele, drums are parodies/interpretations of the original songs. You may use it for private study, scholarship, research or language learning purposes only