» » »

Lostprophets - Its Not The End Of The World Tabs

Artists:  A B C D E F G H I J K L M N O P Q R S T U V W X Y Z # 

Its Not The End Of The World Tabs

(ver. 2) Click to play this song!
Lostprophets
 Rating:
4/5 (4 votes)

 Its Not The End Of The World lessons Tabs too difficult? Try these video lessons and learn fast
 
                Lostprophets

Its not the end of the world (but I can see it from here)

Tuning: Standard
Let Ring: ~
Palm Mute: ....
Rake: x


I figured this out on an acoustic, yet to play it on my electric, but it sounds 
right.


Intro(repeat twice):

Guitar 1
e:-|-x-x-|----------------7-6-----9-7-6-----------------------------|
b:-|-x-x-|--------------------9-7-------9---------------------------|
g:-|-x-x-|-6-6-----------------------------6-6-------8-8--9-9--8-8--|
d:-|-x-x-|-6-6--6-6--5-5-------------------6-6--6-6--8-8--x-x--9-9--|
a:-|-x-x-|-4-4--6-6--6-6-------------------4-4--6-6--6-6--7-7--6-6--|
E:-|-x-x-|------4-4--3-3------------------------4-4-----------------|

Guitar 2 (See above, play chords in 16ths)


Verse Part 1:

Guitar 1
e:-16--16-16--16-16-16-16--16-16---14--14-14--14-14-14-14-14--14-14--|
b:-------------------------------------------------------------------|
g:-------------------------------------------------------------------|
d:-------------------------------------------------------------------|  x2
a:-------------------------------------------------------------------|
E:-------------------------------------------------------------------|
   ..... ...... .. ..  .. .. ........... .. ... .. ... .. .. .. .. ..

Guitar 2 (comes in 8 bars into the verse)

e:-------------------------------------|
b:-------------------------------------|
g:-------------------------------------|
d:-6-6-6-6-6-6-6-6---5-5-5-5-5-5-5-5---| x2
a:-6-6-6-6-6-6-6-6---6-6-6-6-6-6-6-6---|
E:-4-4-4-4-4-4-4-4---3-3-3-3-3-3-3-3---|
  .....................................


Pre Chorus

e:------------------------------------------------------------------|
b:------------------------------------------------------------------|
g:------------------------------------------------------------------|
d:------------------------------------------------------------------|
a:-6-6-6-6-----------------4-4-4-4-6-6-6-6-----------------6-4------|
E:---------4-4-4-4-7-7-7-7-----------------4-4-4-4-7-7-7-7-----7-4--|

e:-------------------------------------------------------------------|
b:-------------------------------------------------------------------|
g:-------------------------------------------------------------------|
d:-------------------------------------------------------------------|
a:-6-6-6-6-----------------4-4-4-4--2-2-2-2-2-2-2-2-3-3-3-3-3-3-3-3--|
E:---------4-4-4-4-7-7-7-7-------------------------------------------|


Chorus (repeat Intro)

Verse (Guitar 2 comes in straight away)

Pre Chorus

Chorus

Solo

Guitar 1
e:-----------------------------------------------------------------------|
b:-----------------------------------------------------------------------|
g:-----------------------------------------------------------------------|
d:-----------------------------------------------------------------------| x2
a:------------------------------------6-6-4-6-6h7-6-4---6-6-4-6-6h7-6-4--|
E:-4-4-2-4-4h5-4-2---4-4-2-4-4h5-4-2-------------------------------------|

e:----------------------------------------------------x-x--x-x-x--|
b:----------------------------------------------------x-x--x-x-x--|
g:----------------------------------------------------x-x--x-x-x--|
d:----------------------------------------------------x-x--x-x-x--|
a:----------------------------------------------------x-x--x-x-x--|
E:-2-2-0-2-2h3-2-0---5-5-4-5-5h7-5-4--4-4-2-4-4h5-4-2-x-x--x-x-x--|

e:-------------------------------------------------------------------------|
b:-------------------------------------------------------------------------|
g:---------------------------------------------------------------------6~--|
d:---------------------------------------------------------------------6~--|
a:---------------------------------------------------------------------4~--|
E:-2-2-0-2-2h3-2-0---5-5-4-5-5h7-5-4--4-4-2-4-4h5-4-2--4-4-2-4-4h5-4-2/----|

e:-----------|
b:-----------|
g:-6/8-------|
d:-x-x---6---|
a:-4/6---6---|
E:-------4---|

*Pick Slides*

Final Chorus (play first part in 16ths)

e:----------------------------------------------|
b:----------------------------------------------|
g:-6-6------------6-6--6-6-------8-8--9-9--8-8--|
d:-6-6--6-6--5-5--6-6--6-6--6-6--8-8--x-x--9-9--|
a:-4-4--6-6--6-6--4-4--4-4--6-6--6-6--7-7--6-6--|
E:------4-4--3-3------------4-4-----------------|

e:-----------------7-6-----9-7-6-----------------------------|
b:---------------------9-7-------9---------------------------|
g:--6-6-----------------------------6-6-------8-8--9-9--8-8--|
d:--6-6--6-6--5-5-------------------6-6--6-6--8-8--x-x--9-9--| x3
a:--4-4--6-6--6-6-------------------4-4--6-6--6-6--7-7--6-6--|
E:-------4-4--3-3------------------------4-4-----------------|

e:----------------7-6-----9-7-6-----------------------------------|
b:--------------------9-7-------9---------------------------------|
g:-6-6-----------------------------6-6-------8-8--9-9--8-8-9--6~--|
d:-6-6--6-6--5-5-------------------6-6--6-6--8-8--x-x--9-9-9--6~--|
a:-4-4--6-6--6-6-------------------4-4--6-6--6-6--7-7--6-6-6--4~--|
E:------4-4--3-3------------------------4-4-----------------------|
            
Submit corrections


        Its Not The End Of The World lessons Hard to play? Try these video lessons and learn fast Its Not The End Of The World lessons
        
↑ Back to top | Tablatures and chords for acoustic guitar and electric guitar, ukulele, drums are parodies/interpretations of the original songs. You may use it for private study, scholarship, research or language learning purposes only