» » »

Lostprophets - For Hes A Jolly Good Felon Tabs

Artists:  A B C D E F G H I J K L M N O P Q R S T U V W X Y Z # 

For Hes A Jolly Good Felon Tabs

(ver. 2) Click to play this song!
Lostprophets
 Rating:
4/5 (4 votes)

 For Hes A Jolly Good Felon lessons Tabs too difficult? Try these video lessons and learn fast
 
                Great song on the new album!

Drop D Tuning

Intro & Verse (x12):

E---------X-----------------------------------------------------------|
B--9-9-9--X--9---11-11------------------------------------------------|
G--6-6-6--X--6---8--8---8--8-8----------------------------------------|
D-----------------------6--6-6----------------------------------------|
A---------------------------------------------------------------------|
D---------------------------------------------------------------------|

Pre Chorus:

E---------------------------------------------------------------------|
B---------------------------------------------------------------------|
G---------------------------------------------------------------------|
D---------------------------------------------------------------------|
A--2-2-2-2-2-2-2-2--4-4-4-4--6-6-6-6----------------------------------|
D---------------------------------------------------------------------|

Chorus (x2):

E---------------------------------------------------------------------|
B---------------------------------------------------------------------|
G------------------------------------4-4-4-4-4-4-4-4------------------|
D--6-6-6-6-6-6-6-6--2-2-2-2-2-2-2-2--4-4-4-4-4-4-4-4--1-1-1-1-1-1-1-1-|
A--6-6-6-6-6-6-6-6--2-2-2-2-2-2-2-2--2-2-2-2-2-2-2-2--1-1-1-1-1-1-1-1-|
D--6-6-6-6-6-6-6-6--2-2-2-2-2-2-2-2-------------------1-1-1-1-1-1-1-1-|

Pre-Verse:

E---------X-----------------------------X-----------------------------|
B--9-9-9--X--9---11-11-----------9-9-9--X--11-11-11-11----------------|
G--6-6-6--X--6---8--8---8--8-8---6-6-6--X--8--8--8--8-----------------|
D-----------------------6--6-6----------------------------------------|
A---------------------------------------------------------------------|
D---------------------------------------------------------------------|

Verse 2 (x8):

E---------X-----------------------------------------------------------|
B--9-9-9--X--9---11-11------------------------------------------------|
G--6-6-6--X--6---8--8---8--8-8----------------------------------------|
D-----------------------6--6-6----------------------------------------|
A---------------------------------------------------------------------|
D---------------------------------------------------------------------|

Pre Chorus:

E---------------------------------------------------------------------|
B---------------------------------------------------------------------|
G---------------------------------------------------------------------|
D---------------------------------------------------------------------|
A--2-2-2-2-2-2-2-2--4-4-4-4--6-6-6-6----------------------------------|
D---------------------------------------------------------------------|

Chorus:

Part 1 (x2):
E---------------------------------------------------------------------|
B---------------------------------------------------------------------|
G------------------------------------4-4-4-4-4-4-4-4------------------|
D--6-6-6-6-6-6-6-6--2-2-2-2-2-2-2-2--4-4-4-4-4-4-4-4--1-1-1-1-1-1-1-1-|
A--6-6-6-6-6-6-6-6--2-2-2-2-2-2-2-2--2-2-2-2-2-2-2-2--1-1-1-1-1-1-1-1-|
D--6-6-6-6-6-6-6-6--2-2-2-2-2-2-2-2-------------------1-1-1-1-1-1-1-1-|

Part 2 (x2):

E---------------------------------------------------------------------|
B---------------------------------------------------------------------|
G---------------------------------------------------------------------|
D--8-8-8-8-8-8-8-8--6-6-6-6-6-6-6-6--4-4-4-4-4-4-4-4--1-1-1-1-1-1-1-1-|
A---------------------------------------------------------------------|
D---------------------------------------------------------------------|

BRIDGE (x2):

E--4-4----------------------------------4-4-----------------------4-6-4---|
B------7-7--4-4---------------4-4--7-7------7-7--4-4-----4-4--7-7-------7-|
G---------------6-6--4-4--6-6------------------------6-6------------------|
D-------------------------------------------------------------------------|
A-------------------------------------------------------------------------|
D-------------------------------------------------------------------------|

Interlude:

E---------X-----------------------------------------------------------|
B--9-9-9--X--9---11-11------------------------------------------------|
G--6-6-6--X--6---8--8---8--8-8----------------------------------------|
D-----------------------6--6-6----------------------------------------|
A---------------------------------------------------------------------|
D---------------------------------------------------------------------|

E---------X-----------------------------X-----------------------------|
B--9-9-9--X--9---11-11-----------9-9-9--X--11-11-11-11----------------|
G--6-6-6--X--6---8--8---8--8-8---6-6-6--X--8--8--8--8-----------------|
D-----------------------6--6-6----------------------------------------|
A---------------------------------------------------------------------|
D---------------------------------------------------------------------|

Chorus:

Part 1 (x2):
E---------------------------------------------------------------------|
B---------------------------------------------------------------------|
G------------------------------------4-4-4-4-4-4-4-4------------------|
D--6-6-6-6-6-6-6-6--2-2-2-2-2-2-2-2--4-4-4-4-4-4-4-4--1-1-1-1-1-1-1-1-|
A--6-6-6-6-6-6-6-6--2-2-2-2-2-2-2-2--2-2-2-2-2-2-2-2--1-1-1-1-1-1-1-1-|
D--6-6-6-6-6-6-6-6--2-2-2-2-2-2-2-2-------------------1-1-1-1-1-1-1-1-|

Part 2 (x2):

E---------------------------------------------------------------------|
B---------------------------------------------------------------------|
G---------------------------------------------------------------------|
D--8-8-8-8-8-8-8-8--6-6-6-6-6-6-6-6--4-4-4-4-4-4-4-4--1-1-1-1-1-1-1-1-|
A---------------------------------------------------------------------|
D---------------------------------------------------------------------|
            
Submit corrections


        For Hes A Jolly Good Felon lessons Hard to play? Try these video lessons and learn fast For Hes A Jolly Good Felon lessons
        
↑ Back to top | Tablatures and chords for acoustic guitar and electric guitar, ukulele, drums are parodies/interpretations of the original songs. You may use it for private study, scholarship, research or language learning purposes only