» » »

Lostprophets - Cant Stop Gotta Date With Hate Tabs

Artists:  A B C D E F G H I J K L M N O P Q R S T U V W X Y Z # 

Cant Stop Gotta Date With Hate Tabs

(ver. 1) Click to play this song!
Lostprophets
 Rating:
4/5 (4 votes)

 Cant Stop Gotta Date With Hate lessons Tabs too difficult? Try these video lessons and learn fast
 
                Just follow how the song goes together with the sound of it and this tabs
Hope u would like it guys ^_^

Take Note: (Lowering the volume is only for the Lead guitar, all Chorus parts)

Tuning: Drop D

=======================================================================

Intro:

Bass:
|----------|
|----------|
|----------|
|--15///1--|

Lead:
|--------------------------15-----------------------| 4x
|--15-14-15-17-15-14-15-17----17-15-17-15-14-15-14--|
|---------------------------------------------------|
|---------------------------------------------------|
|---------------------------------------------------|
|---------------------------------------------------|

|-----|
|-15~-|
|-----|
|-----|
|-----|
|-----|

Rhytm:
|-----------------------------------------| 2x
|-----------------------------------------|
|-----------------------------------------|
|---55555555-77777777-44444444-55555555---|
|---55555555-77777777-44444444-55555555---|
|---55555555-77777777-44444444-55555555---|

Bass:
|-----------------------------------------| 2x
|-----------------------------------------|
|-----------------------------------------|
|---55555555-77777777-44444444-55555555---|

Verse:

Lead:
|----------------------------------------------------| 4x
|----------------------------------------------------|
|----------------------------------------------------|
|---55---------4----------44------------2------------|
|---55------2-----2-------44---------0-----0---------|
|---55--------------------44------------------6-7~---|

Rhytm:
|--------------------------------------------------| 2x
|--------------------------------------------------|
|-------------444----------------------------------|
|---55--------xxx---------44-----------777--6-7~---|
|---55--------222---------44-----------777--6-7~---|
|---55--------------------44-----------777--6-7~---|

|--------------------------------------------------| 2x
|--------------------------------------------------|
|-------------4444444------------------------------|
|---5555555---xxxxxxx-----4444444------777--6-7~---|
|---5555555---2222222-----4444444------777--6-7~---|
|---5555555---------------4444444------777--6-7~---|
      .....     .....       .....


Bass:
|----------------------------------------------------| 4x
|--------------4------------------------2------------|
|-----------2-----2------------------0-----0---------|
|---55--------------------44------------------6-7~---|

Pre-Chorus:

Lead:
|--------------------------15-----------------------| 4x
|--15-14-15-17-15-14-15-17----17-15-17-15-14-15-14--|
|---------------------------------------------------|
|---------------------------------------------------|
|---------------------------------------------------|
|---------------------------------------------------|

Rhytm:
|-----------------------------------------| 2x
|-----------------------------------------|
|-----------------------------------------|
|---55555555-77777777-44444444-55555555---|
|---55555555-77777777-44444444-55555555---|
|---55555555-77777777-44444444-55555555---|

Bass:
|-----------------------------------------| 2x
|-----------------------------------------|
|-----------------------------------------|
|----5~-5-5---7~-7-7---4~-4-4---5~-5-5----|

Chorus:
 
Lead:
(Lower the volume just a little)
|--------------------------15-----------------------| 8x
|--15-14-15-17-15-14-15-17----17-15-17-15-14-15-14--|
|---------------------------------------------------|
|---------------------------------------------------|
|---------------------------------------------------|
|---------------------------------------------------|

Rhythm:
|----------------------------------------------------------| 2x
|----------------------------------------------------------|
|-----------------------------444444444444-----------------|
|---000000000000-777777777777-444444444444-444444/777777---|
|---000000000000-777777777777-222222222222-444444/777777---|
|---000000000000-777777777777--------------444444/777777---|

Bass:
|----------------------------------------------------------| 2x
|----------------------------------------------------------|
|-----------------------------222222222222-----------------|
|---000000000000-777777777777--------------444444/777777---|

Pre-Verse:

Lead:
|--------------------------15-----------------------| 2x
|--15-14-15-17-15-14-15-17----17-15-17-15-14-15-14--|
|---------------------------------------------------|
|---------------------------------------------------|
|---------------------------------------------------|
|---------------------------------------------------|

Rhytm:
|--------------------------------------------------|
|--------------------------------------------------|
|-------------444----------------------------------|
|---55--------xxx---------44-----------777--6-7~---|
|---55--------222---------44-----------777--6-7~---|
|---55--------------------44-----------777--6-7~---|


Bass:
|----------------------------------------------------|
|--------------4------------------------2------------|
|-----------2-----2------------------0-----0---------|
|---55--------------------44------------------6-7~---|

Verse:

Lead:
|----------------------------------------------------| 4x
|----------------------------------------------------|
|----------------------------------------------------|
|---55---------4----------44------------2------------|
|---55------2-----2-------44---------0-----0---------|
|---55--------------------44------------------6-7~---|

Rhytm:
|--------------------------------------------------| 2x
|--------------------------------------------------|
|-------------444----------------------------------|
|---55--------xxx---------44-----------777--6-7~---|
|---55--------222---------44-----------777--6-7~---|
|---55--------------------44-----------777--6-7~---|

|--------------------------------------------------| 2x
|--------------------------------------------------|
|-------------4444444------------------------------|
|---5555555---xxxxxxx-----4444444------777--6-7~---|
|---5555555---2222222-----4444444------777--6-7~---|
|---5555555---------------4444444------777--6-7~---|
      .....     .....       .....

Bass:
|----------------------------------------------------| 2x
|--------------4------------------------2------------|
|-----------2-----2------------------0-----0---------|
|---55--------------------44------------------6-7~---|

|---------------------------------------------| 2x
|-------------4-----------------2-------------|
|-----------2---2222222-------0---00----------|
|---5555555------------4444444-------66-777---|


Pre-Chorus:

Lead:
|--------------------------15-----------------------| 4x
|--15-14-15-17-15-14-15-17----17-15-17-15-14-15-14--|
|---------------------------------------------------|
|---------------------------------------------------|
|---------------------------------------------------|
|---------------------------------------------------|

Rhytm:
|-----------------------------------------| 2x
|-----------------------------------------|
|-----------------------------------------|
|---55555555-77777777-44444444-55555555---|
|---55555555-77777777-44444444-55555555---|
|---55555555-77777777-44444444-55555555---|

Bass:
|-----------------------------------------| 2x
|-----------------------------------------|
|-----------------------------------------|
|----5~-5-5---7~-7-7---4~-4-4---5~-5-5----|

Chorus:

Lead:
(Lower the volume just a little)
|--------------------------15-----------------------| 8x
|--15-14-15-17-15-14-15-17----17-15-17-15-14-15-14--|
|---------------------------------------------------|
|---------------------------------------------------|
|---------------------------------------------------|
|---------------------------------------------------|

Rhythm:
|----------------------------------------------------------| 2x
|----------------------------------------------------------|
|-----------------------------444444444444-----------------|
|---000000000000-777777777777-444444444444-444444/777777---|
|---000000000000-777777777777-222222222222-444444/777777---|
|---000000000000-777777777777--------------444444/777777---|

Bass:
|----------------------------------------------------------| 2x
|----------------------------------------------------------|
|-----------------------------222222222222-----------------|
|---000000000000-777777777777--------------444444/777777---|

Solo:

Lead:
|------------------------17~----17--14-15-14------------|
|--15~-----15-17~-----17----------------------15-17-15--|
|-------14---------14--------14-------------------------|
|-------------------------------------------------------|
|-------------------------------------------------------|
|-------------------------------------------------------|

|-------------------17~----17--14-15-14--------------|
|-----15-17~-----17----------------------15--17-15~--|
|--14---------14--------14---------------------------|
|----------------------------------------------------|
|----------------------------------------------------|
|----------------------------------------------------|

Rhytm:
|-----------------------------------------| 2x
|-----------------------------------------|
|-----------------------------------------|
|---55555555-77777777-44444444-55555555---|
|---55555555-77777777-44444444-55555555---|
|---55555555-77777777-44444444-55555555---|

Bass:
|-----------------------------------------| 2x
|-----------------------------------------|
|-----------------------------------------|
|----5~-5-5---7~-7-7---4~-4-4---5~-5-5----|

Bridge:

Lead/Rhytm:
|-----------------------------------------| 2x
|-----------------------------------------|
|-----------------------------------------|
|---55555555-77777777-44444444-55555555---|
|---55555555-77777777-44444444-55555555---|
|---55555555-77777777-44444444-55555555---|

Bass:
|-----------------------------------------| 2x
|-----------------------------------------|
|-----------------------------------------|
|---55-555---777-777---444-444--555-555---|


Chorus:

Lead:
(Lower the volume just a little) 
|--------------------------15-----------------------| 8x
|--15-14-15-17-15-14-15-17----17-15-17-15-14-15-14--|
|---------------------------------------------------|
|---------------------------------------------------|
|---------------------------------------------------|
|---------------------------------------------------|

Rhythm:
|----------------------------------------------------------| 2x
|----------------------------------------------------------|
|-----------------------------444444444444-----------------|
|---000000000000-777777777777-444444444444-444444/777777---|
|---000000000000-777777777777-222222222222-444444/777777---|
|---000000000000-777777777777--------------444444/777777---|

Bass:
|----------------------------------------------------------| 2x
|----------------------------------------------------------|
|-----------------------------222222222222-----------------|
|---000000000000-777777777777--------------444444/777777---|

Lead:
(Sorry, i dont know this part. I cant even hear the lead clearly. Why
not try doing the first one or do also Rhythm. If you guys werent satisfied with that,
try the solo in this part. Its how Lostprophets do when they play this song live)

Rhythm:
|-------------------------------------------------------------|
|-------------------------------------------------------------|
|-----------------------------444444444444--------------------|
|---000000000000-777777777777-444444444444-444444/777777-5~---|
|---000000000000-777777777777-222222222222-444444/777777-5~---|
|---000000000000-777777777777--------------444444/777777-5~---|

Bass:
|----------------------------------------------------------------|
|----------------------------------------------------------------|
|----------------------------------------------------------------|
|---222222222222-333333333333-5-3-55555555-333333-444444-22-5~---|
            
Submit corrections


        Cant Stop Gotta Date With Hate lessons Hard to play? Try these video lessons and learn fast Cant Stop Gotta Date With Hate lessons
        
↑ Back to top | Tablatures and chords for acoustic guitar and electric guitar, ukulele, drums are parodies/interpretations of the original songs. You may use it for private study, scholarship, research or language learning purposes only