» » »

Lostprophets - A Town Called Hypocrisy Tabs

Artists:  A B C D E F G H I J K L M N O P Q R S T U V W X Y Z # 

A Town Called Hypocrisy Tabs

(ver. 2) Click to play this song!
Lostprophets
 Rating:
4.8/5 (23 votes)

 A Town Called Hypocrisy lessons Tabs too difficult? Try these video lessons and learn fast
 
                                     **LOST PROPHETS - CAN'T CATCH TOMORROW***




e|---------------------------------------------------------------------------|
B|---------------------------------------------------------------------------|
G|------------6-6-6-----------------------------6-6-6-----------7/8--6---6---|
D|------------------8----------8-8-8------------------8----------------8-----|
A|--------------------6--8-8----------------------------6--8-8---------------|
E|--4--6-6------------------------------4--6-6-------------------------------|

e|---------------------------------------------------------------------------|
B|---------------------------------------------------------------------------|
G|------------6-6-6-----------------------------6-6-6------------8/10--8--6--|
D|------------------8----------8-8-8------------------8----------------------|
A|--------------------6--8-8----------------------------6--8-8---------------|
E|--4--6--------------------------------4--6-6-------------------------------|

Then the other guitar comes in with...

e|----------4-4-------------4-4-------------4-4------------------------------|
B|------2-2-----2-2-----2-2-----2-2-----2-2-----2-2-----2-2-4-4-2-2----------|
G|--3-3-------------3-3-------------3-3-------------3-3----------------------|
D|---------------------------------------------------------------------------|
A|---------------------------------------------------------------------------|
E|---------------------------------------------------------------------------|


e|----------4-4-------------4-4-------------4-4------------------------------|
B|------2-2-----2-2-----2-2-----2-2-----2-2-----2-2-----2-2-4-/6--4-2--------|
G|--3-3-------------3-3-------------3-3-------------3-3----------------------|
D|---------------------------------------------------------------------------|
A|---------------------------------------------------------------------------|
E|---------------------------------------------------------------------------|


repeat this quietly through the verse

e|---------------------------------------------------------------------------|
B|---------------------------------------------------------------------------|
G|---------------------------------------------------------------------------|
D|--8--8--8----6-6----6--6--6----8-8-----------------------------------------|
A|--8--8--8----6-6----6--6--6----8-8-----------------------------------------|
E|--6--6--6----4-4----4--4--4----6-6-----------------------------------------|

other guitar plays this bit.

e|-----------4-4-1-1--------4-4-1-1------------------------------------------|
B|-------2-2------------2-2--------------------------------------------------|
G|--3-3---------------3------------------------------------------------------|
D|---------------------------------------------------------------------------|
A|---------------------------------------------------------------------------|
E|---------------------------------------------------------------------------|

e|-----------4-4-1-1--1-1-1-1-1-1-3/4-1--------------------------------------|
B|-------2-2-----------------------------------------------------------------|
G|--3-3----------------------------------------------------------------------|
D|---------------------------------------------------------------------------|
A|---------------------------------------------------------------------------|
E|-------------------------------------------------------------------------


Chorus

e|---------------------------------------------------------------------------|
B|---------------------------------------------------------------------------|
G|---------------------------------------------------------------------------|
D|--8-8-8-8-8-8-8----6-6---6----3-3-3-3-3-3-3----4-4---4--6------------------|
A|--8-8-8-8-8-8-8----6-6---6----3-3-3-3-3-3-3----4-4---4--6------------------|
E|--6-6-6-6-6-6-6----4-4---4----1-1-1-1-1-1-1----2-2---2--4------------------|

reapeat throughout the chorus

then just play what was played in the intro

VERSE

CHORUS

i couldn't work out the solo. i'm not that good!

you can take it from there.



| /  slide up
| \  slide down

===============================================================================
            
Submit corrections


        A Town Called Hypocrisy lessons Hard to play? Try these video lessons and learn fast A Town Called Hypocrisy lessons
        
↑ Back to top | Tablatures and chords for acoustic guitar and electric guitar, ukulele, drums are parodies/interpretations of the original songs. You may use it for private study, scholarship, research or language learning purposes only