» » »

Lostprophets - A Thousand Apologies Tabs

Artists:  A B C D E F G H I J K L M N O P Q R S T U V W X Y Z # 

A Thousand Apologies Tabs

(ver. 3) Click to play this song!
Lostprophets
 Rating:
4/5 (4 votes)

 A Thousand Apologies lessons Tabs too difficult? Try these video lessons and learn fast
 
                Artist - Lostprophets
Song   - A Thousand Apologies
Album  - The Fake Sound of Progress
Tuning - Drop C [C G C F A D]

PM... = palm mute
^     = bend
/     = slide
p     = pull off
h     = hammer on
x     = mute

Intro
-Part 1
D-|--------------------------------------------------------------------------|
A-|--------------------------------------------------------------------------|
F-|--------0-----------------------------------------------------------------|
C-|--------0---------------------5-------------------------------------------|
G-|------------------------------4-------------------------------------------|
C-|-2p1-1-----1-1h2p1----1-2p1-1---1-1h2p1-----------------------------------|


Intro
-Part 2
D-|--------------------------------------------------------------------------|
A-|-------5------------------------------------5-----------------------------|
F-|-4-----4-----6-----8-----11-----------4-----4-----6-----8------6----------|
C-|-2-----2-----4-----8------9-----------2-----2-----4-----8------4----------|
G-|-2-----------4-----6------9-----------2-----------4-----6------4----------|
C-|-2-----------4-----6------9-----------2-----------4-----6------4----------|



Fill
D-|--------------------------------------------------------------------------|
A-|--------------------------------------------------------------------------|
F-|--------------------------------------------------------------------------|
C-|-0~-----------------------------------------------------------------------|
G-|-0~-----------------------------------------------------------------------|
C-|-0~-----------------------------------------------------------------------|




Verse
- Guitar 1 (Dist.)
D-|--------------------------------------------------------------------------|
A-|--------------------------------------------------------------------------|
F-|--------------------------------------------------------------------------|
C-|--------------------------------------------------------------------------|
G-|---7p5-5-----7p5-5---7p3-3-----7p3-3----7p5-5-----7p5-5---7p3-3-----7p3-3-|
C-|-0-------0-0-------0-------0-0--------8-------8-8-------8-------8-8-------|

- Guitar 2 (Clean)
D-|--------------------------------------------------------------------------|
A-|-----13--13------------13--13-------------13--13------------13--13--------|
F-|---10--10--10--------10--10--10---------10--10--10--------10--10--10------|
C-|-12----------------12-----------------12----------------12----------------|
G-|--------------------------------------------------------------------------|
C-|--------------------------------------------------------------------------|



Pre-Chorus
- Part 1
D-|--------------------------------------------------------------------------|
A-|--------------------------------------------------------------------------|
F-|-------------------------10-10-10-10-10-10--------------------------------|
C-|-------------------------10-10-10-12-12-12--------------------------------|
G-|-5---5---5---7---7---7----8--8--8--8--8--8--------------------------------|
C-|---0---0---0---0---0---0--8--8--8--8--8--8-10-----------------------------|


D-|--------------------------------------------------------------------------|
A-|--------------------------------------------------------------------------|
F-|--------------------------------------------17-15-14----------------------|
C-|-------------------------10-10-10-10-10-10--xx-xx-xx----------------------|
G-|-5---5---5---3---3---7----8--8--8--8--8--8--15-13-12----------------------|
C-|---0---0---0---0---0------8--8--8--8--8--8--------------------------------|



Pre-Chorus
- Part 2
D-|-------------------------6-6-6-6-6-6-6---6-6-6--5-5-5---------------------|
A-|-------------------------x-x-x-x-x-x-x---x-x-x--x-x-x---------------------|
F-|-5-5-5-5-5--5-5-5-5-5----7-7-7-7-7-7-7---7-7-7--7-7-7---------------------|
C-|-x-x-x-x-x--x-x-x-x-x----x-x-x-x-x-x-x---x-x-x--x-x-x---------------------|
G-|-3-3-3-3-3--2-2-2-2-2----5-5-5-5-5-5-5---5-5-5--5-5-5---------------------|
C-|--------------------------------------------------------------------------|



Repeat,
        then



Bridge

D-|--------------------------------------------------------------------------|
A-|--------------------------------------------------------------------------|
F-|-5-5-5-5-5-5-5-5-5-5-9-9-9-9-9-7-7-10-10-10-10-10-------------------------|
C-|-x-x-x-x-x-x-x-x-x-x-x-x-x-x-x-x-x-x-x-x-x-x-x-x--------------------------|
G-|-3-3-3-3-3-3-3-3-3-3-7-7-7-7-7-5-5-8--8--8--8--8--------------------------|
C-|--------------------------------------------------------------------------|



D-|--------------------------------------------------------------------------|
A-|--------------------------------------------------------------------------|
F-|-5-5--5-5-5--5-5-5-9-9-9-9-9-7-7-10-10-10-12-12---------------------------|
C-|-x-x--x-x-x--x-x-x-x-x-x-x-x-x-x-x--x--x--x--x----------------------------|
G-|-3-3--3-3-3--3-3-3-7-7-7-7-7-5-5-8--8--8--10-10---------------------------|
C-|--------------------------------------------------------------------------|


Out
- part 1
D-|--------------------------------------------------------------------------|
A-|--------------------------------------------------------------------------|
F-|--------------------------------------------------------------------------|
C-|--------------------------------------------------------------------------|
G-|-2p1-1-1-2p1-1-1-2p1-1-2p1-1----------------------------------------------|
C-|-2p1-1-1-2p1-1-1-2p1-1-2p1-1----------------------------------------------|
PM  . . . . . . . . . . . . . .

Out
- part 2
D-|--------------------------------------|-----------------------------------|
A-|--------------------------------------|-----------------------------------|
F-|--------------------------------------|-----------------------------------|
C-|--------------------------------------|-----------------------------------|
G-|-2-1-1-4^-1-2-1-2-1-1-4^-1-(x2)-------|-2-1-1-4^-1-2-1-2-1-1-4^-0---------|
C-|-2-1-1----1-2-1-2-1-1----1------------|-2-1-1----1-2-1-2-1-1----0---------|

Out
- part 3
D-|-------333-------------------------222------------------------------------|
A-|-------333-------------------------222------------------------------------|
F-|--------------------------------------------------------------------------|
C-|-2-0-1hold-------------------2-0-1hold------------------------------------|
G-|-2-0-1hold-1--1--1--1--1-1---2-0-1hold--1--1--1--1--1-1-------------------|
C-|-2-0-1hold-1--1--1--1--1-1---2-0-1hold--1--1--1--1--1-1-------------------|
PM            .  .  .  .  . .              .  .  .  .  . .


Out
- part 3
D-|-------333-------------------------222------------------------------------|
A-|-------333-------------------------222------------------------------------|
F-|--------------------------------------------------------------------------|
C-|-2-0-1hold-------------------2-0-1hold------------------------------------|
G-|-2-0-1hold-1--1--1--1--1-1---2-0-1hold--1--1--1--1--1-1-------------------|
C-|-2-0-1hold-1--1--1--1--1-1---2-0-1hold--1--1--1--1--1-1-------------------|
PM            .  .  .  .  . .              .  .  .  .  . .
            
Submit corrections


        A Thousand Apologies lessons Hard to play? Try these video lessons and learn fast A Thousand Apologies lessons
        
↑ Back to top | Tablatures and chords for acoustic guitar and electric guitar, ukulele, drums are parodies/interpretations of the original songs. You may use it for private study, scholarship, research or language learning purposes only