Home » L » Los Bunkers »

Los Bunkers - Santiago De Chile Tabs

Artists:  A B C D E F G H I J K L M N O P Q R S T U V W X Y Z # 

Santiago De Chile Tabs

(ver. 1) Click to play this song!
Los Bunkers
Intro :

e|---------------------------|    ___
B|---------------------------|       |
G|---------------------------| X3    |
D|---------------------------|       |
A|---5--5-5-5--5-5-5--/8-7-5-|       |
E|---------------------------|       |_
                                      _ X 2
e|---------------------------|       |
B|---------------------------|       |
G|---------------------------| X1    |
D|---------------------------|       |
A|---5555555-4444444-4--5--7-|       |
E|---------------------------|    ___|



Verso 2 :

allí aprendí a quitar...


e|--5-5-|___
B|--6-6-|   |
G|--7-7-|   |_
D|--7-7-|    _ X3
A|--5-5-|___|
E|------|

e|--1-1-|___
B|--3-3-|   |
G|--3-3-|   |_
D|--3-3-|    _ X1
A|--1-1-|___|
E|------|

e|--1-1-|___
B|--1-1-|   |
G|--2-2-|   |_
D|--3-3-|    _ X1
A|--3-3-|___|
E|--1-1-|

e|--5-5-|___
B|--5-5-|   |
G|--5-5-|   |_
D|--7-7-|    _ X1
A|--7-7-|___|
E|--5-5-|

e|--5-5-|___
B|--6-6-|   |
G|--7-7-|   |_
D|--7-7-|    _ X2
A|--5-5-|___|
E|------|

Coro :

e|--5-5-5-5-5-5|
B|--6-6-6-6-6-6|
G|--7-7-7-7-7-7|
D|--7-7-7-7-7-7|
A|--5-5-5-5-5-5|
E|-------------|

Todo el rato sin parar.

El coso que es como un pequeño solo es asi :


e|--5-5-5-5-5-5|
B|--6-6-6-6-6-6|
G|--7-7-7-7-7-7|
D|--7-7-7-7-7-7|
A|--5-5-5-5-5-5|
E|-------------|

Sin parar.


Luego el verso :


Hasta allí me siguió, como una sombra...

Es :

Mauricio :

A|---5555555-88888888-7777777-| X 3

A|---1111111-55555555-3333333-| X 1

E|---1111111-55555555-3333333-| X 1

E|---5555555-88888888-7777777-| X 1

A|---5555555-88888888-7777777-| X 2

A|---5555555-88888888-7777777-| X 3

A|---1111111-55555555-3333333-| X 1

E|---1111111-55555555-3333333-| X 1

E|---5555555-88888888-7777777-| X 1

A|---5555555-88888888-7777777-| X 2

Gonzalo se mantiene asi:

e|--5-5-5-5-5-5|
B|--6-6-6-6-6-6|
G|--7-7-7-7-7-7|
D|--7-7-7-7-7-7|
A|--5-5-5-5-5-5|
E|-------------|

Harto rato luego hay pequeño cambio de parte de gonzalo
que pasa a FA :

e|--1-1-1-1-1-1|
B|--1-1-1-1-1-1|
G|--2-2-2-2-2-2|
D|--3-3-3-3-3-3|
A|--3-3-3-3-3-3|
E|--1-1-1-1-1-1|

y luego vuelve a:

e|--5-5-5-5-5-5|
B|--6-6-6-6-6-6|
G|--7-7-7-7-7-7|
D|--7-7-7-7-7-7|
A|--5-5-5-5-5-5|
E|-------------|

Después vuelve a cambiar a:

e|--1-1-1-1-1-1|
B|--1-1-1-1-1-1|
G|--2-2-2-2-2-2|
D|--3-3-3-3-3-3|
A|--3-3-3-3-3-3|
E|--1-1-1-1-1-1|

Y Luego vuelve a:

e|--5-5-5-5-5-5|
B|--6-6-6-6-6-6|
G|--7-7-7-7-7-7|
D|--7-7-7-7-7-7|
A|--5-5-5-5-5-5|
E|-------------|

se mantiene en eso hasta el final del 2do coro y
empieza el punteo otra vez:


e|---------------------------|    ___
B|---------------------------|       |
G|---------------------------| X3    |
D|---------------------------|       |
A|---5--5-5-5--5-5-5--/8-7-5-|       |
E|---------------------------|       |_
                                      _ X 2
e|---------------------------|       |
B|---------------------------|       |
G|---------------------------| X1    |
D|---------------------------|       |
A|---5555555-4444444-4--5--7-|       |
E|---------------------------|    ___|

Después sigue con el:

e|--5-5-5-5-5-5|
B|--6-6-6-6-6-6|
G|--7-7-7-7-7-7|
D|--7-7-7-7-7-7|
A|--5-5-5-5-5-5|
E|-------------|

hasta casi terminar la canción en la que vuelve el punteo

pero esta vez solo lo hace Mauricio y Gonzalo sigue con el:

e|--5-5-5-5-5-5|
B|--6-6-6-6-6-6|
G|--7-7-7-7-7-7|
D|--7-7-7-7-7-7|
A|--5-5-5-5-5-5|
E|-------------|

Recordemos el punteo es este;




e|---------------------------|    ___
B|---------------------------|       |
G|---------------------------| X3    |
D|---------------------------|       |
A|---5--5-5-5--5-5-5--/8-7-5-|       |
E|---------------------------|       |_
                                      _ X 2
e|---------------------------|       |
B|---------------------------|       |
G|---------------------------| X1    |
D|---------------------------|       |
A|---5555555-4444444-4--5--7-|       |
E|---------------------------|    ___|

a la segunda vez el punteo termina asi:

e|----------------------------x|
B|----------------------------x|
G|----------------------------7|
D|----------------------------7|
A|---5555555-4444444-4--5--7--5|
E|-----------------------------|

Bueno eso, si tienen alguna duda manden un correo a

Esta tan la mando desde Chiloé mi nombre es
Héctor Alarcón y eso, saludos!
            
Submit corrections

↑ Back to top | Tablatures and chords for acoustic guitar and electric guitar, ukulele, drums are parodies/interpretations of the original songs. You may use it for private study, scholarship, research or language learning purposes only