Home » L » Los Bunkers »

Los Bunkers - Ven Aqui Bass

Artists:  A B C D E F G H I J K L M N O P Q R S T U V W X Y Z # 

Ven Aqui Bass

(ver. 1) Click to play this song!
Los Bunkers
ntro x2
G-----------------------------------------------|
D-----------------------------------------------|
A-----------------------------------------------|
E---10-10---10/5-5-5---5/10-10-10---10/5-5-5----|

G-----------------------------------------------|
D-----------------------------------------------|
A-----5/10-10-10---10/5-5-5---8---5---3-3-------|
E-----------------------------------------------|

G------la-parte-rapda----------------------------|
D------------------------------------------------|
A-------3----------------------------------------|
E---------5-5—-3—5-7-----------------------------|

Verso x2
G-----------------------------------------------|
D-----------------------------------------------|
A-----------------------------------------------|
E---10-10---10/5-5-5---5/10-10-10---10/5-5-5----|

G-----------------------------------------------|
D-----------------------------------------------|
A-----5/10-10-10---10/5-5-5---8---5---3-3-------|
E-----------------------------------------------|

G------la-parte-rapda----------------------------|
D------------------------------------------------|
A-------3----------------------------------------|
E---------6-6—-5—6-7-----------------------------|

Coro x2
G-----------------------------------------------|
D-----------------------------------------------|
A-----------------------------------------------|
E---10-10---10/5-5-5---5/10-10-10---10/5-5-5----|

G-----------------------------------------------|
D-----------------------1010-1212-1414-1515-----|
A-----------------------------------------------|
E---8--5----33-55-66-88-------------------------|

ntro x2
Verso x2
Coro x2

Pausa
G------------------------------------------------|
D------------------------------------------------|
A------5-------3-----------5-------------3-3-3-3-|
E--1-------3-----------1-------3-3-3-3-----------|

Solo x2
G-----------------------------------------------|
D-----------------------------------------------|
A-----------------------------------------------|
E---10-10---10/5-5-5---5/10-10-10---10/5-5-5----|

G-----------------------------------------------|
D-----------------------------------------------|
A-----5/10-10-10---10/5-5-5---8---5---3-3-------|
E-----------------------------------------------|

G------la-parte-rapda----------------------------|
D------------------------------------------------|
A-------3----------------------------------------|
E---------5-5—-3—5-7-----------------------------|


Verso x4

ntro x2

Y termna en

G------------|
D------------|
A------5-----|
E------------|
            
Submit corrections

↑ Back to top | Tablatures and chords for acoustic guitar and electric guitar, ukulele, drums are parodies/interpretations of the original songs. You may use it for private study, scholarship, research or language learning purposes only