Home » L » Lordi »

Lordi - To Hell With Pop Tabs

Artists:  A B C D E F G H I J K L M N O P Q R S T U V W X Y Z # 

To Hell With Pop Tabs

(ver. 1) Click to play this song!
Lordi
 Rating:
4/5 (4 votes)
                Hi again guys, 
Once again, I've just exported this tab from GP, as it wasn't on here in plain 

Anyway, awesome rockin' piece of rock/metal - ENJOY


I'm pretty sure Amen uses delay on the guitar for the Solo

Interlude after Chorus                  Solo
-------|-------|-------|-------|-------|----------------------|
-------|-------|-------|-------|-------|----------------------|
-------|-------|-------|-------|-------|--14--------16--------|
-------|-------|-------|-------|-------|----------------------|
-------|-------|-------|-------|-------|----------------------|
-------|-------|-------|-------|-------|----------------------|


   H         H            Q      E  E   E    Q     E     W                 
----------------------|-------------------------------|-------------------|
----------------------|-------------------------------|-------------------|
--17--------16--------|--16s----14-----14s--12----14--|--L----------------|
----------------------|-------------------------------|-------------------|
----------------------|-------------------------------|-------------------|
----------------------|-------------------------------|-------------------|


   H         H            H         H            Q     Q     E    Q     E    
----------------------|----------------------|------------------------------|
----------------------|------------15--------|--17----17----17s--15----17~--|
--14--------16--------|--17------------------|------------------------------|
----------------------|----------------------|------------------------------|
----------------------|----------------------|------------------------------|
----------------------|----------------------|------------------------------|


            |------3------|                                     
  H         Q      Q      Q        Q     Q     E    E   E   E   
-----------17s----15s----12----|--17----17----17s--15------17--|
--L----------------------------|-----------------------17------|
-------------------------------|-------------------------------|
-------------------------------|-------------------------------|
-------------------------------|-------------------------------|
-------------------------------|-------------------------------|


  E   E  E   E   E    Q     E      Q      Q     E    E   E   E   
-----17-----17--17s--15--------|---------15---------------------|
---------------------------17--|--15b----------17s--15------15--|
-------------------------------|------------------------17------|
-------------------------------|--------------------------------|
-------------------------------|--------------------------------|
-------------------------------|--------------------------------|


                                   TP    TP    TP            
  E   E   S  S  E   Q.      E      Q     Q     Q     S  E.   
-------------------------------|----------------------------|
--L--17--15-17-13--------------|----------------------------|
-------------------14~---------|----------------------------|
-------------------------------|--------------------12-14---|
-------------------------------|--12----14----15------------|
-------------------------------|----------------------------|


   TP    TP    TP  TP                                        
   Q     Q     E   E   S  S  E      Q.       Q.       Q      
--------------------------------|--15b------15b------15b----|
-------------------------13-----|---------------------------|
----------------------12----14--|---------------------------|
--------------12--14------------|---------------------------|
--12----14----------------------|---------------------------|
--------------------------------|---------------------------|


               \1/                                                        
  E   Q.       Q    Q                                                     
--L--15b------15---------|
-------------------------|
-------------------------|
-------------------------|
-------------------------|
-------------------------|
            
Submit corrections

↑ Back to top | Tablatures and chords for acoustic guitar and electric guitar, ukulele, drums are parodies/interpretations of the original songs. You may use it for private study, scholarship, research or language learning purposes only