Home » L » Lordi »

Lordi - The Ghosts Of The Heceta Head Bass

Artists:  A B C D E F G H I J K L M N O P Q R S T U V W X Y Z # 

The Ghosts Of The Heceta Head Bass

(ver. 1) Click to play this song!
Lordi
 Rating:
4/5 (4 votes)
                Band: Lordi

Standard tuning

Legend:
h       hammer on
p       pull off
/       slide up to note
\       slide down from note


Intro
~~~~~
  Part A
|---------------------------------|---------------------------------|
|---------------------------------|-0-----0-------0-----------------|
|-0-----0-------0-----------------|---------------------------------|
|-----------------1-----1---1---1-|-----------------1-----1-0-----0-|


|---------------------------------|---------------------------------|
|---------------------------------|---------------------------------|
|-0-----0-------0-2-----2---2---2-|---------------------------------|
|---------------------------------|-4-----4-------4-1-----1-0-----0-|


  Part B
|---------------------------------|---------------------------------|
|---------------------------------|---------------------------------|
|-5-5-5-5-5-5-5-5-1-1-1-1-1-1-1-1-|-----------------1-1-1-1-0-0-0-0-|
|---------------------------------|-3-3-3-3-3-3-3-3-----------------|


|---------------------------------|---------------------------------|
|---------------------------------|---------------------------------|
|-5-5-5-5-5-5-5-5-7-7-7-7-7-7-7-7-|-4-4-4-4-4-4-4-4-1-1-1-1-3-3-3-3-|
|---------------------------------|---------------------------------|



Verse
~~~~~
   "Deep under sea..."
|---------------------------------|---------------------------------|
|---------------------------------|---------------------------------|
|-0-----0---------0-----0-------0-|---------------------------------|
|---------------------------------|-1-----1---------3-----3-------3-|
 Play twice


Pre-chorus
~~~~~~~~~~
           "Doesn't matter how long it'll take..."
|---------------------------------|---------------------------------|
|---------------------------------|-----------------3---------------|
|-3-5---5---3-5-3---3-5-----3-5---|-0-1---3-1-0-1-----3---3---4---5-|
|---------------------------------|---------------------------------|


                                  "...the grey lady must go..."
|---------------------------------|---------------------------------|
|---------------------------------|---------------------------------|
|-----5\----3-5-3---3-5-----3-5---|---------------------------------|
|-------------------------------0-|---0-0-0-0-0-0-1---1-1-3---3-3---|



Chorus
~~~~~~
 "from the mud..."                "they'll take the lighthouse over..."
|---------------------------------|---------------------------------|
|---------------------------------|---------------------------------|
|-0-0-0-0-0-0-0-0-3-3-3-3-3-3-3-3-|-5-5-5-5-5-5-5-5-----------------| Play x2
|---------------------------------|-----------------0-0-0-0-0-0-0-0-|


"heceta head...   the ghost of the heceta head..."
|---------------------------------|---------------------------------|
|---------------------------------|---------------------------------|
|---------------------------------|---------------------------------|
|-1---------------1-1-1-1-1-1-1-1-|-2-2-2-2-2-2-2-2-4-4-4-4-4-4-4-4-|


Second "Intro"
~~~~~~~~~~~~~~

|---------------------------------|---------------------------------|
|---------------------------------|---------------------------------|
|-0-0-0-0-0-0-0-0-----------------|-5-5-5-5-5-5-5-5-----------------|
|-----------------1-1-1-1-1-1-1-1-|-----------------1-1-1-1-0-0-0-0-|


|---------------------------------|---------------------------------|
|---------------------------------|---------------------------------|
|-5-5-5-5-5-5-5-5-7-7-7-7-7-7-7-7-|-4-4-4-4-4-4-4-4-1-1-1-1-3-3-3-3-|
|---------------------------------|---------------------------------|

Then return to Verse, Pre-Chorus, then Chorus, after which:

Solo
~~~~

|---------------------------------|---------------------------------|
|---------------------------------|---------------------------------|
|-3-3-3-3-3-3-3-3-3-3-3-3-1-1-1-1-|---------------------------------|
|---------------------------------|-4-4-4-4-4-4-4-4-4-4-4-4-6-6-6-6-|


|---------------------------------|---------------------------------|
|---------------------------------|---------------------------------|
|-3-3-3-3-3-3-3-3-3-3-3-3-1-1-1-1-|---------------------------------|
|---------------------------------|-4-4-4-4-4-4-4-4-4-4-4-4-3-3-3-3-|


|---------------------------------|---------------------------------|
|---------------------------------|---------------------------------|
|---------------------------------|-------------------------1-------|
|-1-1-1-1-1-1-1-1-1-1-1-1-1-1-1-1-|-3-3-3-3-3-3-3-3-4---------------|


Then back to Intro Part A, then to Chorus, after which:

End Riff
~~~~~~~~
 It's all A's, so mess around.

|---------------------------------|---------------------------------|
|---------------------------------|---------------------------------|
|-0-0-0-0-0-0-0-0-0-0-0-0-0-0-0-0-|-0-0-0-0-0-0-0-0-0-0-0-0-0-0-0-0-|
|---------------------------------|---------------------------------|


|-------------------------------------|
|-/7---------------/7-----------------|
|----0-0-0-0-0-0-0----0-0-0-0-0-0-0-0-|
|-------------------------------------|


|-----------------------------------------|
|-/7---/7---/7---/7---/7---/7---/7---/7---|
|----0----0----0----0----0----0----0----0-|
|-----------------------------------------|


End.
            
Submit corrections

↑ Back to top | Tablatures and chords for acoustic guitar and electric guitar, ukulele, drums are parodies/interpretations of the original songs. You may use it for private study, scholarship, research or language learning purposes only