Home » L » Lordi »

Lordi - Supermonstars Bass

Artists:  A B C D E F G H I J K L M N O P Q R S T U V W X Y Z # 

Supermonstars Bass

(ver. 1) Click to play this song!
Lordi
 Rating:
4/5 (4 votes)
                -----------------------------------------------------------------------------
                             Supermonstars - Lordi
-----------------------------------------------------------------------------

| x  Mute note

Intro:

G|-------------------------------------------------|
D|-------------------------------------------------|
A|-------------------------------------------------|
D|-2~---502~---502~---72---52---507~---------------|

Main riff:

G|-------------------------------------------------|
D|-------------------------------------------------|
A|-------------------------------------------------|
D|-x-32-x-02-x-32-x-32-x-032-----------------------|(x3)

Verse:

G|-------------------------------------------------|
D|-------------------------------------------------|
A|-----------------233333--------------------------|
D|-222222222222222--------0-x-0-x-x-32-x-032-------|(x2)

Pre-chorus:

G|-------------------------------------------------|
D|-------------------------------------------------|
A|-------------------------------------------------|
D|-3333-5555-7777-5555-3333-5555-77777777----------|

G|-------------------------------------------------|
D|-------------------------------------------------|
A|-------------------------------------------------|
D|-3333-5555-7777-5555-3333-2222-5~----------------|

Chorus:

G|-------------------------------------------------|
D|-------------------------------------------------|
A|-3333-1111-6666------3333-6666-------------------|
D|----------------8888-----------888868------------|

G|-------------------------------------------------|
D|-------------------------------------------------|
A|-3333-1111-6666------3333-1111-------------------|
E|----------------8888-----------66666666----------|

Main riff x2 this time!
Verse 2 the same!
Pre-chorus 2 the same!
Chorus 2 the same!

Solo:

G|-------------------------------------------------|
D|-------------------------------------------------|
A|-----------------233333--------------------------|
D|-222222222222222--------0-x-0-x-x-32-x-032-------|(x2)

G|-------------------------------------------------|
D|-------------------------------------------------|
A|-------------------------------------------------|
D|-3333-5555-7777-5555-3333-5555-77777777----------|

Last chorus the same as the others!

Ending:

G|-------------------------------------------------|
D|-------------------------------------------------|
A|-------------------------------------------------|
D|-x-32-x-02-x-32-x-32-x-032-----------------------| til fade out!

Enjoy my monsters!
            
Submit corrections

↑ Back to top | Tablatures and chords for acoustic guitar and electric guitar, ukulele, drums are parodies/interpretations of the original songs. You may use it for private study, scholarship, research or language learning purposes only