» » »

Lordi - Icon Of Dominance Bass

Artists:  A B C D E F G H I J K L M N O P Q R S T U V W X Y Z # 

Icon Of Dominance Bass

(ver. 1) Click to play this song!
Lordi
 Rating:
4/5 (4 votes)

 Icon Of Dominance lessons Tabs too difficult? Try these video lessons and learn fast
 
                Band: Lordi

5-string Standard Tuning

Back in 2002 it was still Magnum playing bass for Lordi (even though
Kalmah appears on the cover of Get Heavy), and I know he didn't use a 
fiver, but I play this with a 5-string for that low C in the chorus. 
If you have only 4-strings just play the 3rd fret on the A string 
instead of the low C.

Intro
~~~~~

|---------------------------------|---------------------------------|
|---------------------------------|---------------------------------|
|-0-0-0-0-0-0-0-0-0-0-0-0-0-0-0-1/|-5-5-5-5-5-5-5-5-5-5-5-5\--------|
|---------------------------------|-------------------------1-1-1-1-|
|---------------------------------|---------------------------------|


|---------------------------------|---------------------------------|
|---------------------------------|---------------------------------|
|---------------------------------|-3-3-3-3-3-3-3-3-3-3-3-3-2-2-2-2-|
|-3-3-3-3-3-3-3-3-3-3-3-3-3-3-3-3-|---------------------------------|
|---------------------------------|---------------------------------|


|---------------------------------|---------------------------------|
|---------------------------------|---------------------------------|
|-0-0-0-0-0-0-0-0-0-0-0-0-0-0-0-1/|-5-5-5-5-5-5-5-5-5-5-5-5\--------|
|---------------------------------|-------------------------1-1-1-1-|
|---------------------------------|---------------------------------|


|---------------------------------|---------------------------------|
|---------------------------------|---------------------------------|
|---------------------------------|-0-0-0-0-0-0-0-0-0-0-0-0-0-00--00|
|-0-0-0-0-0-0-0-0-0-0-0-0-0-0-0-0-|---------------------------------|
|---------------------------------|---------------------------------|


                                  |---------------------------------|
                        After 2nd |---------------------------------|
                        intro     |-0-0-0-0-0-0-0-0-0-0-0-0-0-532-32|
                                  |---------------------------------|
                                  |---------------------------------|


Verse (Play x2)
~~~~~

|---------------------------------|---------------------------------|
|---------------------------------|---------------------------------|
|-0-0-0-0-0-0-0-------------------|-0-0-0-0-0-0-0-------------------|
|---------------0-3-3-3-3-3-3-3-3-|---------------0-3-3-3-3-3-3-3-0-|
|---------------------------------|---------------------------------|


|---------------------------------|---------------------------------|
|---------------------------------|---------------------------------|
|-5-5-5-5-5-5-5-0-----------------|-0-0-0-----------5-5-5-5---------|
|-----------------1-1-1-1-3-3-3-3-|-------0-1-1-1-0---------1-1-3-3-|
|---------------------------------|---------------------------------|


Bridge
~~~~~~

|---------------------------------|---------------------------------|
|---------------------------------|---------------------------------|
|-3-3-3-0-2-2-2-0-----------------|---------5-5-5-0/7-7-7-7-7-7-7-7-|
|-----------------1-1-1-1-4-4-6-6-|-5-5-5-0-------------------------|
|---------------------------------|---------------------------------|


Chorus
~~~~~~

|---------------------------------|---------------------------------|
|---------------------------------|---------------------------------|
|---------------------------------|---------------------------------| Play 
|-5-5-5-5-5-5-5-5-1-1-1-1-1-1-1-1-|---------------5\3-3-3-3-4-4-4-4-| x2
|---------------------------------|-1-1-1-1-1-1-1-------------------|


Interlude
~~~~~~~~~

|---------------------------------|---------------------------------|
|---------------------------------|---------------------------------|
|---------------------------------|---------------------------------|
|-5-r-----------------------------|---------------------------------|
|---------------------------------|---------------------------------|


|---------------------------------|---------------------------------|
|---------------------------------|---------------------------------|
|---------------------------------|---------------------------------|
|---------------------------------|--------------5\-1-1-1-1-1-1-1-1-|
|---------------------------------|---------------------------------|


|---------------------------------|
|---------------------------------|
|---------------------------------|
|-0-0-0-0-0-0-0-0-0-0-0-0-0-0-0-0-|
|---------------------------------|

Solo (play Intro), then Chorus, after which:


Outro Chorus
~~~~~~~~~~~~

|---------------------------------|---------------------------------|
|---------------------------------|---------------------------------|
|---------------------------------|---------------------------------|
|-5-r---------3-r-1-1-1-1-1-1-1-1-|---------------5\3-3-3-3-4-4-4-4-|
|---------------------------------|-1-1-1-1-1-1-1-------------------|

|---------------------------------|---------------------------------|
|---------------------------------|---------------------------------|
|---------------------------------|---------------------------------|
|-5-5-5-5-5-5-5-5-1-1-1-1-1-1-1-1-|---------------5\3-3-3-3-4-4-4-4-|
|---------------------------------|-1-1-1-1-1-1-1-------------------|

|---------------------------------|---------------------------------|
|---------------------------------|---------------------------------|
|---------------------------------|-0~~-----------------------------|
|-0-0-0-0-0-0-0-0-0-0-0-0-0-0-0-0-|---------------------------------|
|---------------------------------|---------------------------------|

End.
            
Submit corrections


        Icon Of Dominance lessons Hard to play? Try these video lessons and learn fast Icon Of Dominance lessons
        
↑ Back to top | Tablatures and chords for acoustic guitar and electric guitar, ukulele, drums are parodies/interpretations of the original songs. You may use it for private study, scholarship, research or language learning purposes only