» » »

Lordi - Chainsaw Buffet Bass

Artists:  A B C D E F G H I J K L M N O P Q R S T U V W X Y Z # 

Chainsaw Buffet Bass

(ver. 1) Click to play this song!
Lordi
 Rating:
4/5 (4 votes)

 Chainsaw Buffet lessons Tabs too difficult? Try these video lessons and learn fast
 
                Intro 1:

F|-----------------------------------------------------------------|
C|-----------------------------------------------------------------|
G|-------33~-55~-3~------------------------------------------------|
D|-3335~------------5~---------------------------------------------|(x2)

Intro 2:

F|-----------------------------------------------------------------|
C|-----------------------------------------------------------------|
G|--------------3-333333-5-555555----------------------------------|
D|-333-5-555555-------------------1-11-3-33------------------------|

F|-----------------------------------------------------------------|
C|-----------------------------------------------------------------|
G|----------3-333333-5-555555--------------003565------------------|
D|-5-555555-------------------1-11-3-33-5~-------------------------|

Verse:

F|-----------------------------------------------------------------|
C|-----------------------------------------------------------------|
G|------------3-------------1~-------------------------------------|
D|-5---50---0----33--11--11----------------------------------------|(x2)

Pre chorus:

F|-----------------------------------------------------------------|
C|-----------------------------------------------------------------|
G|-----------------------------------------------------------------|
D|-1~11111-35~55555-31~11111-35~555555-----------------------------|

F|-----------------------------------------------------------------|
C|-----------------------------------------------------------------|
G|----------5~55555-87~777777--------------------------------------|
D|-1~11111-0------------------3333---------------------------------|

Chorus:

F|-----------------------------------------------------------------|
C|-----------------------------------------------------------------|
G|-----------------------------------------------------------------|
D|-5~--1~113~335~55-1-11-3-33-5-55-1-3-----------------------------|

F|-----------------------------------------------------------------|
C|-----------------------------------------------------------------|
G|-----------------------------------------------------------------|
D|-5~--1~113~335~55-1-11-3-33-5-5555-1-3-3-------------------------|

Intro 2 again.
Verse 2 is the as the other one!
Pre chorus 2 is the same as the other one!
Chorus 2 is the same as the other one!
Intro 1 is used as bridge!

Solo:

F|------------------------------------------------------------------|
C|------------------------------------------------------------------|
G|--------------3-333333-5-555555-----------------------------------|
D|-333-5-555555-------------------1-11-3-33-------------------------|

F|------------------------------------------------------------------|
C|------------------------------------------------------------------|
G|----------3-333333-5-555555---------------------------------------|
D|-5-555555-------------------1-11-3-33-----------------------------|

F|------------------------------------------------------------------|
C|------------------------------------------------------------------|
G|----------5-555555------------------------------------------------|
D|-1-111111----------0-0000000-3333---------------------------------|

The part where Mr. Lordi sings kinda acapela:

F|------------------------------------------------------------------|
C|------------------------------------------------------------------|
G|------------------------------------------------------------------|
D|-1-3-5~-----------------------------------------------------------|

Last chorus:

F|------------------------------------------------------------------|
C|------------------------------------------------------------------|
G|-3~------1~113~33------1-11-3-33---1------------------------------|
D|----4~44----------4-44-----------4--------------------------------|(x4)

F|------------------------------------------------------------------|
C|------------------------------------------------------------------|
G|-3~--------3------------------------------------------------------|
D|----4~-3----------------------------------------------------------|            
Submit corrections


        Chainsaw Buffet lessons Hard to play? Try these video lessons and learn fast Chainsaw Buffet lessons
        
↑ Back to top | Tablatures and chords for acoustic guitar and electric guitar, ukulele, drums are parodies/interpretations of the original songs. You may use it for private study, scholarship, research or language learning purposes only