Home » L » Live »

Live - I Alone Tabs

Artists:  A B C D E F G H I J K L M N O P Q R S T U V W X Y Z # 

I Alone Tabs

(ver. 2) Click to play this song!
Live
LIVE I Alone

[Standard tuning]

Verse 
E[----------0-0-0-0------------0-0-0-0-----------]
B[----0-----0-0-0-0-----0------0-0-0-0-----------]
G[-3--x--3--3--------3--x---3--3-----------------]
D[-4--6--4-----------4--6---4------------3~--3~--]
A[-4--4--2-----------4--4---2------------1~--1~--]
E[-2-----------------2---------------------------]

Chorus
E[-----------------------------------------------]
B[-----------------------------------------------]
G[------3-3------------3-3-----------------------]
D[------3-3--4-4-4-----3-3--4-4-4--6-6-6-6-6-----]
A[-6-6--1-1--4-4-4--6--1-1--4-4-4--6-6-6-6-6-----]
E[-6-6-------2-2-2--6-------2-2-2--4-4-4-4-4-----]

  Around 2:14 this comes in 
E[-----------------------------------------------]
B[-----------------------------------------------]
G[-----------------------------------------------]
D[-8---------------8-----------------8-----------]
A[-8---------------8-----------------8-----------]
E[-6---------------6-----------------6-----------]


(Originally done in Eb,i just put it in E.
 the 4th chord in the chorus may be weird but its
 Sounds just like it)
            
Submit corrections

↑ Back to top | Tablatures and chords for acoustic guitar and electric guitar, ukulele, drums are parodies/interpretations of the original songs. You may use it for private study, scholarship, research or language learning purposes only