Home » L » Live »

Live - I Alone Bass

Artists:  A B C D E F G H I J K L M N O P Q R S T U V W X Y Z # 

I Alone Bass

(ver. 2) Click to play this song!
Live

 Learn to play "I Alone" with online video lessons  

Tuned Down ½ Step    This tab is 100% correct now.

VERSE  ***Dalheimer uses lots and lots of filler at the end of this riff, 
which would take a long time to figure out and tab. Here's a common one:
Gb|--------|    |-----------------------------|
Db|---0----|    |---0---------------------0---|
Ab|-----3--|    |-----3==0h3-0h3--3/5-------3-|
Eb|-3------|    |-3---------------------3-----|

LEAD UP to CHORUS "and leave you there by yourself..."
Gb|---------------------|
Db|---------------------|
Ab|--/14--14--14--14-10-|
Eb|---------------------|

CHORUS (x3)     then:
Gb|-------------|---------------------------------------|
Db|-------------|---------------------------------------|
Ab|-------------|---------------------------------------|
Eb|-0-0-0/7-3-3-|-3/5-55-5/7-77-7/9-9-9-99/10-10-10--|

BRIDGE (this is the part that sounds a little funky w/ this tuning)
Gb|------------------------------------------|
Db|------------------------------------------|
Ab|------------------------------------------|
Eb|-7h9-7-7-7--7h9-7-7-9---------------------/
            
Submit corrections

↑ Back to top | Tablatures and chords for acoustic guitar and electric guitar, ukulele, drums are parodies/interpretations of the original songs. You may use it for private study, scholarship, research or language learning purposes only