Home » L » Little Richard »

Little Richard - Tutti Frutti Bass

Artists:  A B C D E F G H I J K L M N O P Q R S T U V W X Y Z # 

Tutti Frutti Bass

(ver. 1) Click to play this song!
Little Richard
Gtr I (E A D G) - 'Frank Fields - Upright Bass'


 Intro
  Q=186
 4/4
  Gtr I
  W          W          W
|----------|----------|------||
|----------|----------|------||
|----------|----------|------||
|----------|----------|------||


 Chorus
  $
  Q  Q  Q  Q    Q  Q  Q  Q    Q  Q  Q  Q    Q  Q  Q  Q
|-------------|-------------|-------------|-------------|
|----------0--|-3--0--------|----------0--|-3--0--------|
|----0--3-----|-------3--0--|----0--3-----|-------3--0--|
|-1-----------|-------------|-1-----------|-------------|


  Q  Q  Q  Q    Q  Q  Q  Q    Q  Q  Q  Q    Q  Q  Q  Q
|----------0--|-3--0--------|-------------|-------------|
|----0--3-----|-------3--0--|----------0--|-3--0--------|
|-1-----------|-------------|----0--3-----|-------3--0--|
|-------------|-------------|-1-----------|-------------|


  Q  Q  Q  Q    Q  Q  Q  Q    q  Q  H      W
|-------0--2--|----------0--|------------|------||
|----2--------|----0--3-----|------------|------||
|-3-----------|-1-----------|------------|------||
|-------------|-------------|-1----------|------||


   1st - 3rd Verses
    Q  Q  Q  Q    Q  Q  Q  Q    Q  Q  Q  Q    Q  Q  Q  Q
||--------------|-------------|-------------|--------------|
||o----------0--|-3--0--------|----------0--|-3--0---------|
||o----0--3-----|-------3--0--|----0--3-----|-------3--0---|
||--1-----------|-------------|-1-----------|--------------|


  Q  Q  Q  Q    Q  Q  Q  Q    Q  Q  Q  Q    Q  Q  Q  Q
|----------0--|-3--0--------|-------------|-------------|
|----0--3-----|-------3--0--|----------0--|-3--0--------|
|-1-----------|-------------|----0--3-----|-------3--0--|
|-------------|-------------|-1-----------|-------------|


  q  Q  H      q  Q  H      q  Q  H      W
|------------|------------|------------|------||
|------------|------------|------------|------||
|------------|------------|------------|------||
|-1----------|-1----------|-1----------|------||


 Chorus
  Q  Q  Q  Q    Q  Q  Q  Q    Q  Q  Q  Q    Q  Q  Q  Q
|-------------|-------------|-------------|-------------|
|----------0--|-3--0--------|----------0--|-3--0--------|
|----0--3-----|-------3--0--|----0--3-----|-------3--0--|
|-1-----------|-------------|-1-----------|-------------|


  Q  Q  Q  Q    Q  Q  Q  Q    Q  Q  Q  Q    Q  Q  Q  Q
|----------0--|-3--0--------|-------------|-------------|
|----0--3-----|-------3--0--|----------0--|-3--0--------|
|-1-----------|-------------|----0--3-----|-------3--0--|
|-------------|-------------|-1-----------|-------------|


                               To Coda
  Q  Q  Q  Q    Q  Q  Q  Q    q  Q  H      W
|-------0--2--|----------0--|------------|-------||
|----2--------|----0--3-----|------------|------o||
|-3-----------|-1-----------|------------|------o||
|-------------|-------------|-1----------|-------||


 Saxophone Solo
  Q  Q  Q  Q    Q  Q  Q  Q    Q  Q  Q  Q    Q  Q  Q  Q
|-------------|-------------|-------------|-------------|
|----------0--|-3--0--------|----------0--|-3--0--------|
|----0--3-----|-------3--0--|----0--3-----|-------3--0--|
|-1-----------|-------------|-1-----------|-------------|


  Q  Q  Q  Q    Q  Q  Q  Q    Q  Q  Q  Q    Q  Q  Q  Q
|----------0--|-3--0--------|-------------|-------------|
|----0--3-----|-------3--0--|----------0--|-3--0--------|
|-1-----------|-------------|----0--3-----|-------3--0--|
|-------------|-------------|-1-----------|-------------|


                                 D.S. al Coda       &
  Q  Q  Q  Q    Q  Q  Q  Q    q  Q  H      W           W
|-------0--2--|----------0--|------------|----------||------*|
|----2--------|----0--3-----|------------|----------||------*|
|-3-----------|-1-----------|------------|----------||------*|
|-------------|-------------|-1----------|----------||------*|

            
Submit corrections

↑ Back to top | Tablatures and chords for acoustic guitar and electric guitar, ukulele, drums are parodies/interpretations of the original songs. You may use it for private study, scholarship, research or language learning purposes only