Home » L » Little Richard »

Little Richard - Tutti Frutti Tabs

Artists:  A B C D E F G H I J K L M N O P Q R S T U V W X Y Z # 

Tutti Frutti Tabs

(ver. 1) Click to play this song!
Little Richard
Intro
  Q=186
  N.C.
 4/4
  Gtr I (Clean El. Gtr.)
  W          W          W
|----------|----------|------||
|----------|----------|------||
|----------|----------|------||
|----------|----------|------||
|----------|----------|------||
|----------|----------|------||


 Chorus
  $
  F
   Q   E  E  +E   E  E  E    Q   E  E  +E   E  E  E
|--8---8--8--(8)--8--8--8-|--8---8--8--(8)--8--8--8-|
|-10--10-10-(10)-10-10-10-|-10--10-10-(10)-10-10-10-|
|-10--10-10-(10)-10-10-10-|-10--10-10-(10)-10-10-10-|
|-10--10-10-(10)-10-10-10-|-10--10-10-(10)-10-10-10-|
|--8---8--8--(8)--8--8--8-|--8---8--8--(8)--8--8--8-|
|-------------------------|-------------------------|


   Q   E  E  +E   E  E  E    Q   E  E  +E   E  E  E
|--8---8--8--(8)--8--8--8-|--8---8--8--(8)--8--8--8-|
|-10--10-10-(10)-10-10-10-|-10--10-10-(10)-10-10-10-|
|-10--10-10-(10)-10-10-10-|-10--10-10-(10)-10-10-10-|
|-10--10-10-(10)-10-10-10-|-10--10-10-(10)-10-10-10-|
|--8---8--8--(8)--8--8--8-|--8---8--8--(8)--8--8--8-|
|-------------------------|-------------------------|


  Bb7
  Q  E E +E  E E E   Q  E E +E  E E E
|-6--6-6-(6)-6-6-6-|-6--6-6-(6)-6-6-6-|
|-6--6-6-(6)-6-6-6-|-6--6-6-(6)-6-6-6-|
|-7--7-7-(7)-7-7-7-|-7--7-7-(7)-7-7-7-|
|-6--6-6-(6)-6-6-6-|-6--6-6-(6)-6-6-6-|
|-8--8-8-(8)-8-8-8-|-8--8-8-(8)-8-8-8-|
|-6--6-6-(6)-6-6-6-|-6--6-6-(6)-6-6-6-|


  F
   Q   E  E  +E   E  E  E    Q   E  E  +E   E  E  E
|--8---8--8--(8)--8--8--8-|--8---8--8--(8)--8--8--8-|
|-10--10-10-(10)-10-10-10-|-10--10-10-(10)-10-10-10-|
|-10--10-10-(10)-10-10-10-|-10--10-10-(10)-10-10-10-|
|-10--10-10-(10)-10-10-10-|-10--10-10-(10)-10-10-10-|
|--8---8--8--(8)--8--8--8-|--8---8--8--(8)--8--8--8-|
|-------------------------|-------------------------|


  C7                        Bb7                F
   Q   E  E  +E   E  E  E   Q  E E +E  E E E    q  Q  H      W
|--8---8--8--(8)--8--8--8-|-6--6-6-(6)-6-6-6-|--8----------|------||
|--8---8--8--(8)--8--8--8-|-6--6-6-(6)-6-6-6-|-10----------|------||
|--9---9--9--(9)--9--9--9-|-7--7-7-(7)-7-7-7-|-10----------|------||
|--8---8--8--(8)--8--8--8-|-6--6-6-(6)-6-6-6-|-10----------|------||
|-10--10-10-(10)-10-10-10-|-8--8-8-(8)-8-8-8-|--8----------|------||
|--8---8--8--(8)--8--8--8-|-6--6-6-(6)-6-6-6-|-------------|------||


   1st - 3rd Verses
    F
     Q   E  E  +E   E  E  E    Q   E  E  +E   E  E  E
||---8---8--8--(8)--8--8--8-|--8---8--8--(8)--8--8--8-|
||o-10--10-10-(10)-10-10-10-|-10--10-10-(10)-10-10-10-|
||--10--10-10-(10)-10-10-10-|-10--10-10-(10)-10-10-10-|
||--10--10-10-(10)-10-10-10-|-10--10-10-(10)-10-10-10-|
||o--8---8--8--(8)--8--8--8-|--8---8--8--(8)--8--8--8-|
||--------------------------|-------------------------|


   Q   E  E  +E   E  E  E    Q   E  E  +E   E  E  E
|--8---8--8--(8)--8--8--8-|--8---8--8--(8)--8--8--8--|
|-10--10-10-(10)-10-10-10-|-10--10-10-(10)-10-10-10--|
|-10--10-10-(10)-10-10-10-|-10--10-10-(10)-10-10-10--|
|-10--10-10-(10)-10-10-10-|-10--10-10-(10)-10-10-10--|
|--8---8--8--(8)--8--8--8-|--8---8--8--(8)--8--8--8--|
|-------------------------|--------------------------|


  Bb7
  Q  E E +E  E E E   Q  E E +E  E E E
|-6--6-6-(6)-6-6-6-|-6--6-6-(6)-6-6-6-|
|-6--6-6-(6)-6-6-6-|-6--6-6-(6)-6-6-6-|
|-7--7-7-(7)-7-7-7-|-7--7-7-(7)-7-7-7-|
|-6--6-6-(6)-6-6-6-|-6--6-6-(6)-6-6-6-|
|-8--8-8-(8)-8-8-8-|-8--8-8-(8)-8-8-8-|
|-6--6-6-(6)-6-6-6-|-6--6-6-(6)-6-6-6-|


  F
   Q   E  E  +E   E  E  E    Q   E  E  +E   E  E  E
|--8---8--8--(8)--8--8--8-|--8---8--8--(8)--8--8--8-|
|-10--10-10-(10)-10-10-10-|-10--10-10-(10)-10-10-10-|
|-10--10-10-(10)-10-10-10-|-10--10-10-(10)-10-10-10-|
|-10--10-10-(10)-10-10-10-|-10--10-10-(10)-10-10-10-|
|--8---8--8--(8)--8--8--8-|--8---8--8--(8)--8--8--8-|
|-------------------------|-------------------------|


   q  Q  H       q  Q  H       q  Q  H      W
|--8----------|--8----------|--8----------|------||
|-10----------|-10----------|-10----------|------||
|-10----------|-10----------|-10----------|------||
|-10----------|-10----------|-10----------|------||
|--8----------|--8----------|--8----------|------||
|-------------|-------------|-------------|------||


 Chorus
  F
   Q   E  E  +E   E  E  E    Q   E  E  +E   E  E  E
|--8---8--8--(8)--8--8--8-|--8---8--8--(8)--8--8--8-|
|-10--10-10-(10)-10-10-10-|-10--10-10-(10)-10-10-10-|
|-10--10-10-(10)-10-10-10-|-10--10-10-(10)-10-10-10-|
|-10--10-10-(10)-10-10-10-|-10--10-10-(10)-10-10-10-|
|--8---8--8--(8)--8--8--8-|--8---8--8--(8)--8--8--8-|
|-------------------------|-------------------------|


   Q   E  E  +E   E  E  E    Q   E  E  +E   E  E  E
|--8---8--8--(8)--8--8--8-|--8---8--8--(8)--8--8--8-|
|-10--10-10-(10)-10-10-10-|-10--10-10-(10)-10-10-10-|
|-10--10-10-(10)-10-10-10-|-10--10-10-(10)-10-10-10-|
|-10--10-10-(10)-10-10-10-|-10--10-10-(10)-10-10-10-|
|--8---8--8--(8)--8--8--8-|--8---8--8--(8)--8--8--8-|
|-------------------------|-------------------------|


  Bb7
  Q  E E +E  E E E   Q  E E +E  E E E
|-6--6-6-(6)-6-6-6-|-6--6-6-(6)-6-6-6-|
|-6--6-6-(6)-6-6-6-|-6--6-6-(6)-6-6-6-|
|-7--7-7-(7)-7-7-7-|-7--7-7-(7)-7-7-7-|
|-6--6-6-(6)-6-6-6-|-6--6-6-(6)-6-6-6-|
|-8--8-8-(8)-8-8-8-|-8--8-8-(8)-8-8-8-|
|-6--6-6-(6)-6-6-6-|-6--6-6-(6)-6-6-6-|


  F
   Q   E  E  +E   E  E  E    Q   E  E  +E   E  E  E
|--8---8--8--(8)--8--8--8-|--8---8--8--(8)--8--8--8-|
|-10--10-10-(10)-10-10-10-|-10--10-10-(10)-10-10-10-|
|-10--10-10-(10)-10-10-10-|-10--10-10-(10)-10-10-10-|
|-10--10-10-(10)-10-10-10-|-10--10-10-(10)-10-10-10-|
|--8---8--8--(8)--8--8--8-|--8---8--8--(8)--8--8--8-|
|-------------------------|-------------------------|


                                                 To Coda
  C7                        Bb7                F
   Q   E  E  +E   E  E  E   Q  E E +E  E E E    q  Q  H      W
|--8---8--8--(8)--8--8--8-|-6--6-6-(6)-6-6-6-|--8----------|-------||
|--8---8--8--(8)--8--8--8-|-6--6-6-(6)-6-6-6-|-10----------|------o||
|--9---9--9--(9)--9--9--9-|-7--7-7-(7)-7-7-7-|-10----------|-------||
|--8---8--8--(8)--8--8--8-|-6--6-6-(6)-6-6-6-|-10----------|-------||
|-10--10-10-(10)-10-10-10-|-8--8-8-(8)-8-8-8-|--8----------|------o||
|--8---8--8--(8)--8--8--8-|-6--6-6-(6)-6-6-6-|-------------|-------||


 Saxophone Solo
  F
   Q   E  E  +E   E  E  E    Q   E  E  +E   E  E  E
|--8---8--8--(8)--8--8--8-|--8---8--8--(8)--8--8--8-|
|-10--10-10-(10)-10-10-10-|-10--10-10-(10)-10-10-10-|
|-10--10-10-(10)-10-10-10-|-10--10-10-(10)-10-10-10-|
|-10--10-10-(10)-10-10-10-|-10--10-10-(10)-10-10-10-|
|--8---8--8--(8)--8--8--8-|--8---8--8--(8)--8--8--8-|
|-------------------------|-------------------------|


   Q   E  E  +E   E  E  E    Q   E  E  +E   E  E  E
|--8---8--8--(8)--8--8--8-|--8---8--8--(8)--8--8--8-|
|-10--10-10-(10)-10-10-10-|-10--10-10-(10)-10-10-10-|
|-10--10-10-(10)-10-10-10-|-10--10-10-(10)-10-10-10-|
|-10--10-10-(10)-10-10-10-|-10--10-10-(10)-10-10-10-|
|--8---8--8--(8)--8--8--8-|--8---8--8--(8)--8--8--8-|
|-------------------------|-------------------------|


  Bb7
  Q  E E +E  E E E   Q  E E +E  E E E
|-6--6-6-(6)-6-6-6-|-6--6-6-(6)-6-6-6-|
|-6--6-6-(6)-6-6-6-|-6--6-6-(6)-6-6-6-|
|-7--7-7-(7)-7-7-7-|-7--7-7-(7)-7-7-7-|
|-6--6-6-(6)-6-6-6-|-6--6-6-(6)-6-6-6-|
|-8--8-8-(8)-8-8-8-|-8--8-8-(8)-8-8-8-|
|-6--6-6-(6)-6-6-6-|-6--6-6-(6)-6-6-6-|


  F
   Q   E  E  +E   E  E  E    Q   E  E  +E   E  E  E
|--8---8--8--(8)--8--8--8-|--8---8--8--(8)--8--8--8-|
|-10--10-10-(10)-10-10-10-|-10--10-10-(10)-10-10-10-|
|-10--10-10-(10)-10-10-10-|-10--10-10-(10)-10-10-10-|
|-10--10-10-(10)-10-10-10-|-10--10-10-(10)-10-10-10-|
|--8---8--8--(8)--8--8--8-|--8---8--8--(8)--8--8--8-|
|-------------------------|-------------------------|


                                                   D.S. al Coda       &
  C7                        Bb7                F
   Q   E  E  +E   E  E  E   Q  E E +E  E E E    q  Q  H      W           W
|--8---8--8--(8)--8--8--8-|-6--6-6-(6)-6-6-6-|--8----------|----------||------*|
|--8---8--8--(8)--8--8--8-|-6--6-6-(6)-6-6-6-|-10----------|----------||------*|
|--9---9--9--(9)--9--9--9-|-7--7-7-(7)-7-7-7-|-10----------|----------||------*|
|--8---8--8--(8)--8--8--8-|-6--6-6-(6)-6-6-6-|-10----------|----------||------*|
|-10--10-10-(10)-10-10-10-|-8--8-8-(8)-8-8-8-|--8----------|----------||------*|
|--8---8--8--(8)--8--8--8-|-6--6-6-(6)-6-6-6-|-------------|----------||------*|            
Submit corrections

↑ Back to top | Tablatures and chords for acoustic guitar and electric guitar, ukulele, drums are parodies/interpretations of the original songs. You may use it for private study, scholarship, research or language learning purposes only