Home » L » Little Richard »

Little Richard - Baby Face Bass

Artists:  A B C D E F G H I J K L M N O P Q R S T U V W X Y Z # 

Baby Face Bass

(ver. 1) Click to play this song!
Little Richard
Intro:
G|---------------------------|
D|-33-----3------33-----3----|
A|---5-3-5-5-3-----5-3-5-5-3-|
E|---------------------------|

Verse 1:
G|-----------------------------------------------------|
D|-33-----3------33-----3------------------------------|
A|---5-3-5-5-3-----5-3-5-5-3-5-3-----3-----33-----3----|
E|------------------------------5-3-5-5-3----5-3-5-5-3-|
                                          (Break)
G|--------------------------------------------|
D|----------------33---3-------55-----5-------|
A|-33-----3---------5-3-5-5-3----7-5-7-7-5--3-|
E|---5-3-5-5-3--------------------------------|

Chorus:                        [Quavers]
G|-------------------------------------------------------------------|
D|-3-----3------33-----3----------------------------------------3333-|
A|--5-3-5-5-3-----5-3-5-5-3-5---00000000---55555555---1111-3333------|
E|-------------------------------------------------------------------|

G|------------------------------|
D|------5555------3--3--3--2-0--|
A|-5555------3333-------------3-|
E|------------------------------|

Verse 2:
G|----------------------------------------------------|
D|-3-----3------33-----3------------------------------|
A|--5-3-5-5-3-----5-3-5-5-3-5-3-----3-----33-----3----|
E|-----------------------------5-3-5-5-3----5-3-5-5-3-|
                                           (Break)
G|---------------------------------------------|
D|----------------33---3--------55-----5-------|
A|-33-----3---------5-3-5-5-3-----7-5-7-7-5--3-|
E|---5-3-5-5-3---------------------------------|

Sax Solo Repeat Chorus:

Repeat Verse 2:

Last Chorus:                    [Quavers]
G|-------------------------------------------------------------------|
D|-3-----3------33-----3----------------------------------------3333-|
A|--5-3-5-5-3-----5-3-5-5-3-5---00000000---55555555---1111-3333------|
E|-------------------------------------------------------------------|

G|----------------------------|
D|------5555------3333-333----|
A|-5555------3333-------------|
E|--------------------------1-|            
Submit corrections

↑ Back to top | Tablatures and chords for acoustic guitar and electric guitar, ukulele, drums are parodies/interpretations of the original songs. You may use it for private study, scholarship, research or language learning purposes only