Home » L » Little Richard »

Little Richard - Lucille Tabs

Artists:  A B C D E F G H I J K L M N O P Q R S T U V W X Y Z # 

Lucille Tabs

(ver. 2) Click to play this song!
Little Richard

[Verse + Chorus]

  Db 
e|---------------------------|
B|---------------------------|
G|---------------------------|
D|--------------------7------| 
A|------8--8--11--11-----11--|
E|9--9-----------------------| x4

  Gb
e|---------------------------|    
B|---------------------------|
G|--------------------7------|
D|------8--8--11--11-----11--|
A|9--9-----------------------|
E|---------------------------| x2

  Db 
e|---------------------------|
B|---------------------------|
G|---------------------------|
D|--------------------7------| 
A|------8--8--11--11-----11--|
E|9--9-----------------------| x2

  Ab                           Gb
e|---------------------------|---------------------------|   
B|---------------------------|---------------------------|
G|------------------9--------|--------------------7------|
D|------10-10-13-13---13-----|------8--8--11--11-----11--|
A|11-11----------------------|9--9-----------------------|
E|---------------------------|---------------------------|

 Gb
e|---------------------------|    
B|---------------------------|
G|--------------------7------|
D|------8--8--11--11-----11--|
A|9--9-----------------------|
E|---------------------------| x2

[Solo]

e|----------|------------|-------------|-------------|-------------------|
B|----------|------------|-5-7h9p7\5h7-|-5-7h9p7\5h7-|-------------------|
G|----------|------------|6-6----------|6-6----------|-4-4h6-6-6-4-------|
D|9b--------|6-8-9-8-----|-------------|-------------|6-6----------6-4-3~|
A|----------|--------9-8~|-------------|-------------|-------------------|
E|----------|------------|-------------|-------------|-------------------|

e|-----------------------------------------------------------------------|
B|-----------------------------------------------------------------------|
G|6-6-4-6-----6-6-4-6-----6-6-4-6-6-6-4-6-6-6-4-6-6-6-4-6-6-6-4-6~-------|
D|-----------------------------------------------------------------------|
A|-----------------------------------------------------------------------|
E|-----------------------------------------------------------------------|            
Submit corrections

↑ Back to top | Tablatures and chords for acoustic guitar and electric guitar, ukulele, drums are parodies/interpretations of the original songs. You may use it for private study, scholarship, research or language learning purposes only