» » »

Little Feat - Willin Tabs

Artists:  A B C D E F G H I J K L M N O P Q R S T U V W X Y Z # 

Willin Tabs

(ver. 2) Click to play this song!
Little Feat
 Rating:
2.4/5 (23 votes)

 Willin lessons Tabs too difficult? Try these video lessons and learn fast
 
                 Intro
  Q=72
  G                D/F#
 4/4
  Gtr I (Ac. Gtr. w/ Open G-Tuning: DGDGBD
   E  E  +S  S S S  E  S  S  +S  S E
|------------------------------------|
|----12-(12)----------10-10-(10)-----|
|-----0--(0)-0-0-0-----0--0--(0)-0---|
|----------------------------------0-|
|-12---------------11----------------|
|------------------------------------|


  Em          C5           G               C  Dadd4 C G
  E E S S S S E. S E S S   S S E +S  S S S E. S S S S S
|------------------------|-----5-(5)----------------------|
|---8-x-x----------8-8-0-|-----3-(3)-3---0-1--3-----1-0---|
|---0-x-x---x----5-5-5---|---0-------0---0-0--0-----0-0---|
|------------------5-----|-0-----------0---2--4---0-2-0---|
|-9-------7---5----------|-0-----------0------------------|
|------------------------|--------------------------------|


                         $
  E Q  S S S S S S S S E
|---5--5-5-----5-5-------||
|---0--0-0-----0-0-------||
|---0--0-0-----0-0-------||
|---0--------------------||
|----------0-0-----0-0---||
|-0--------------------0-||


 1st & 2nd Verses
  G                D/F#                Em          C5
   E  E  +S  S S S  E  S  S  +S  S E   E E S S S S E. S E S S
|------------------------------------|--------------------------|
|----12-(12)----------10-10-(10)-----|---8-x-x----------8-8-0---|
|-----0--(0)-0-0-0-----0--0--(0)-0---|---0-x-x---x----5-5-5-----|
|----------------------------------0-|------------------5-------|
|-12---------------11----------------|-9-------7---5------------|
|------------------------------------|--------------------------|


  G               C  Dadd4 C G
  S S E +S  S S S E. S S S S S   E Q  S S S S S S S S E
|-----5-(5)--------------------|---5--5-5-----5-5-------|
|-----3-(3)-3---0-1--3-----1-0-|---0--0-0-----0-0-------|
|---0-------0---0-0--0-----0-0-|---0--0-0-----0-0-------|
|-0-----------0---2--4---0-2-0-|---0--------------------|
|-0-----------0----------------|----------0-0-----0-0---|
|------------------------------|-0--------------------0-|


                   D/F#
   E  E  +S  S S S  E  S  S  +S  S E
|------------------------------------|
|----12-(12)----------10-10-(10)-----|
|-----0--(0)-0-0-0-----0--0--(0)-0---|
|----------------------------------0-|
|-12---------------11----------------|
|------------------------------------|


  Em          C5           G               C  Dadd4 C G
  E E S S S S E. S E S S   S S E +S  S S S E. S S S S S
|------------------------|-----5-(5)--------------------|
|---8-x-x----------8-8-0-|-----3-(3)-3---0-1--3-----1-0-|
|---0-x-x---x----5-5-5---|---0-------0---0-0--0-----0-0-|
|------------------5-----|-0-----------0---2--4---0-2-0-|
|-9-------7---5----------|-0-----------0----------------|
|------------------------|------------------------------|


  E Q  S S S S S S S S E
|---5--5-5-----5-5--------||
|---0--0-0-----0-0--------||
|---0--0-0-----0-0--------||
|---0---------------------||
|----------0-0-----0-0----||
|-0--------------------0--||


 Chorus
  C        D                         G                  Am7 G/B
                                                  3/4
  Q  E S S E S S E S S   E S S E S S E S S E S S   E. S E E S S E
|-5--5-5-5-7-7-7-7-7-7-|-7-7-7-7-7-7-5-5-5-5-5-5-|-5--5-----0-0-0-|
|-5--5-5-5-7-7-7-7-7-7-|-7-7-7-7-7-7-0-0-0-0-0-0-|-0--0-1-1-3-3-3-|
|-5--5-5-5-7-7-7-7-7-7-|-7-7-7-7-7-7-0-0-0-0-0-0-|-0--0-0-0-0-0-0-|
|-5--5-5-5-7-7-7-7-7-7-|-7-7-7-7-7-7-0-0-0-0-0-0-|-0--0-----------|
|-5--5-5-5-7-7-7-7-7-7-|-7-7-7-7-7-7-0-0-0-0-0-0-|-0--0-2-2-4-4-4-|
|----------------------|-------------------------|----------------|


  C                                       D
 4/4                    3/4              4/4             2/4
  Q  E S S E S S E S S   E. S E E S S E   Q  S E S H      +H
|----------------------|----------------|-7--7-7-7-7----|-(7)----|
|-5--5-5-5-5-5-5-5-5-5-|-5--5-5-5-5-5-5-|-7--7-7-7-7----|-(7)----|
|-0--0-0-0-0-0-0-0-0-0-|-0--0-0-0-0-0-0-|-7--7-7-7-7----|-(7)----|
|----------------------|----------------|-7--7-7-7-7----|-(7)----|
|-5--5-5-5-5-5-5-5-5-5-|-5--5-5-5-5-5-5-|-7--7-7-7-7----|-(7)----|
|----------------------|----------------|---------------|--------|


  N.C.         G                      D
 4/4
  H    Q  Q    Q  E S S E S S E S S   E S S E S S E S S E S S
|------------|-5--5-5-5-5-5-5-5-5-5-|-7-7-7-7-7-7-7-7-7-7-7-7--|
|------------|-0--0-0-0-0-0-0-0-0-0-|-7-7-7-7-7-7-7-7-7-7-7-7--|
|------------|-0--0-0-0-0-0-0-0-0-0-|-7-7-7-7-7-7-7-7-7-7-7-7--|
|------------|-0--0-0-0-0-0-0-0-0-0-|-7-7-7-7-7-7-7-7-7-7-7-7--|
|-5----4--2--|-0--0-0-0-0-0-0-0-0-0-|-7-7-7-7-7-7-7-7-7-7-7-7--|
|------------|----------------------|--------------------------|


                     To Coda
  G           C/G   Dadd4/C/G  G
  E S S E S S S S S S +E  E    Q  E S S S S S S S S E
|-5-5-5-5-5-5----------------|-5--5-5-5-5-5-5-5-5-5-5-|
|-0-0-0-0-0-0-1-1-1-3-(3)-1--|-0--0-0-0-0-0-0-0-0-0-0-|
|-0-0-0-0-0-0-0-0-0-0-(0)-0--|-0--0-0-0-0-0-0-0-0-0-0-|
|-0-0-0-0-0-0-2-2-2-4-(4)-2--|-0--0-0-0-0-0-0-0-0-0-0-|
|-0-0-0-0-0-0-0-0-0-0-(0)-0--|-0--0-0-0-0-0-0-0-0-0-0-|
|----------------------------|------------------------|


   Piano Solo
    G                D/F#
     E  E  +S  S S S  E  S  S  +S  S E
||-------------------------------------|
||o----12-(12)----------10-10-(10)-----|
||------0--(0)-0-0-0-----0--0--(0)-0---|
||-----------------------------------0-|
||o-12---------------11----------------|
||-------------------------------------|


  Em          C5           G               C  Dadd4 C G
  E E S S S S E. S E S S   S S E +S  S S S E. S S S S S
|------------------------|-----5-(5)--------------------|
|---8-x-x----------8-8-0-|-----3-(3)-3---0-1--3-----1-0-|
|---0-x-x---x----5-5-5---|---0-------0---0-0--0-----0-0-|
|------------------5-----|-0-----------0---2--4---0-2-0-|
|-9-------7---5----------|-0-----------0----------------|
|------------------------|------------------------------|


 1.
  E Q  S S S S S S S S E
|---5--5-5-----5-5---------||
|---0--0-0-----0-0--------o||
|---0--0-0-----0-0---------||
|---0----------------------||
|----------0-0-----0-0----o||
|-0--------------------0---||


                            Outro
  2.
             D.S. al Coda &
  G                          G     C/G   C/G   C/G
  E Q  S S S S S S S S E     E S S S S S S S S S S Q    +W
|---5--5-5-----5-5--------||--------------------------|--------*|
|---0--0-0-----0-0--------||-0-0-0-1-0-0-1-0-0-1-0-0--|-(0)----*|
|---0--0-0-----0-0--------||-0-0-0-0-0-0-0-0-0-0-0-0--|-(0)----*|
|---0---------------------||-0-0-0-2-0-0-2-0-0-2-0-0--|-(0)----*|
|----------0-0-----0-0----||-0-0-0-0-0-0-0-0-0-0-0-0--|-(0)----*|
|-0--------------------0--||--------------------------|--------*|            
Submit corrections


        Willin lessons Hard to play? Try these video lessons and learn fast Willin lessons
        
↑ Back to top | Tablatures and chords for acoustic guitar and electric guitar, ukulele, drums are parodies/interpretations of the original songs. You may use it for private study, scholarship, research or language learning purposes only