» » »

Little Feat - Willin Bass

Artists:  A B C D E F G H I J K L M N O P Q R S T U V W X Y Z # 

Willin Bass

(ver. 1) Click to play this song!
Little Feat
 Rating:
3.6/5 (23 votes)

 Willin lessons Tabs too difficult? Try these video lessons and learn fast
 
                Gtr I (E A D G) - 'Roy Estrada - Bass'


 Intro         1st & 2nd Verses
  Q=72
             $
 4/4
  Gtr I
  Wx4           H    H
|------------||-----------|
|------------||-5----4----|
|------------||-----------|
|------------||-----------|


  H    Q  Q    Q  Q  E. S +S  S E   E e E e E e Q    H    H
|---------5--|----------4-(4)-----|---7-------7-7--|-----------|
|------------|-5-----7------------|-5-----7-5------|-5----4----|
|-7----3-----|----5-----------5-7-|-----5----------|-----------|
|------------|--------------------|----------------|-----------|


  H    E Q  E   Q  E E E e e e   E E E E E e e e
|------5-5----|----------------|-----------------||
|-----------7-|-5------7-------|-5-------5-----4-||
|-7-----------|----5-----5-7-7-|-----5-----5-7---||
|-------------|----------------|-----------------||


 Chorus
                              3/4        4/4
  Q  Q  Q  Q    Q  e e Q  Q    Q  Q  Q    Q  Q  Q  Q
|-5-----7-----|-7------------|-------4--|-5------------|
|----5-----7--|------4-5-----|-5--7-----|----5---------|
|-------------|----7------5--|----------|-------3--3---|
|-------------|--------------|----------|--------------|


 3/4           4/4           2/4      4/4
  Q  Q  S S E   Q  E E H      +H       H    Q  Q
|-5-----5-5-6-|-7-----------|--------|-5----4-----|
|----5--------|----7-5------|--------|---------7--|
|-------------|--------5----|-(5)----|------------|
|-------------|-------------|--------|------------|


                                              To Coda
  Q  Q  Q  S S E   Q  E E Q  S S E   Q  E E E e  e e
|----------4---7-|-7---------------|------------------|
|-5-----5----7---|----7-4--------4-|-5------7-9-------|
|----5-----------|--------5--5-7---|----5----------7--|
|----------------|-----------------|------------10----|


                    Piano Solo
  E E E E e e e e    Q  Q  Q  E E   Q  S E S  Q   +S   S  S  S
|-----------------||--------------|----9-----------------------|
|-5---------------||-5--5--4--5-4-|------9-9-10--(10)-10-10----|
|-----5-------0-2-||--------------|-7-----------------------10-|
|---------3-3-----||--------------|----------------------------|


   Q   Q   e  e  e  e    E E  E  e  E.  S  Q     Q   Q   H
|---------------------|-----------------------|---------11----|
|---------------------|----------------12-12--|---------------|
|-10------12-12-------|-10------12-10---------|-10------------|
|-----10--------10-12-|------10---------------|-----10--------|


                                    D.S. al Coda
  Q  +E  E H      Q  E E E e e e   Q  Q  E. S Q
|-9--(9)-7-5----|----------4-----|---------------||
|---------------|-5------7-------|-5-----5--5-5--||
|---------------|----5-------5-7-|----5----------||
|---------------|----------------|---------------||


 Outro
  &
  Q  E e e e Q    +W
|------4-4-2-0--|-(0)----*|
|-5-------------|--------*|
|----5----------|--------*|
|---------------|--------*|
            
Submit corrections


        Willin lessons Hard to play? Try these video lessons and learn fast Willin lessons
        
↑ Back to top | Tablatures and chords for acoustic guitar and electric guitar, ukulele, drums are parodies/interpretations of the original songs. You may use it for private study, scholarship, research or language learning purposes only