» » »

Lior - Autumn Flow Tabs

Artists:  A B C D E F G H I J K L M N O P Q R S T U V W X Y Z # 

Autumn Flow Tabs

(ver. 2) Click to play this song!
Lior
 Rating:
3/5 (24 votes)

 Autumn Flow lessons Tabs too difficult? Try these video lessons and learn fast
 
                Tuning: DADGAD (open D tuning with a G instead of F#)
Capo 3 

[Intro x2, Verse x4]

d|------------------------------------------|
A|--------0---0---0-----0---0---0---0-------|
G|------0-----0---0---0-----0---0---0-------|
D|--2/4-----2---0---------------------------|
A|------------------3-----2---0-------------|
D|--------------------------------3---2b-0--|

Oh, feels like autumn's back again so soon
See my father turning gray under a silver moon

[Chorus 1]

d|-----0--5--0--------0--4--0--------0--0--0--------0--------0-|
A|----0-0--5--0------0-0--0--0------0-0--0--0------0-0---2/4---|
G|---0---0--0--0----0---0--0--0----0---0--0--0----0---0--------|
D|-------------------------------------------------------------|
A|-----------------------------------------------0-------------|
D|--5--------------4--------------2----------------------------|

d|-----0--5--0--------0--4--0--------0--0--0--------0----------|
A|----0-0--5--0------0-0--0--0------0-0--0--0-------0----------|
G|---0---0--0--0----0---0--0--0----0---0--0--0-----------------|
D|-------------------------------------------------------------|
A|-------------------------------------------------------------|
D|--5--------------4--------------3--------------2-------------|

Don't remember when he was a young man anymore
Well that's just so long ago
And suddenly I'm asking if you love me all the time
Even when the diamond loses its shine

[Intro x2, Verse x4]

The heaviness of loss and the weightlessness of a baby boy
The despair and the imminent joy

[Chorus 2]
You know temptation only shows you one side of its face
Got to make sure you see the other before you join the rat race
I don't know why I'm so happy to take care of you but I've learned
To go with the flow and that's what the flow wants to do

[Intro tag x2]

[Bridge]

d|-----------0----5-----------0--------------------------------|
A|----------0-0---5------0----0--------------------0-4b-0------|
G|---------0---0----0---0-0-----0--0--0--0--0-----0------------|
D|---------------------------------0--0--0--0----0--------3b-0-|
A|---------------------9---9-------0--2--4--5---0--------------|
D|--0--4--5-----------7------------0--0--0--0--0---------------|                           


[Intro x2, Verse x4]
So I don't need to tell you do I my girl
You're sunshine you're everything good in the world

[Chorus 3]
Well you know I'm thinking about myself less and less
Only holler if it's S.O.S
Taking bigger steps to get to you
Happy to sit here and watch you and I grow
And bathe in the sweet autumn flow

[Intro x2]
[Chorus 2]
You know temptation only shows you one side of its face
Got to make sure you see the other before you join the rat race
Don't know why I'm so happy to take care of you but I've learned
To go with the flow and that's what the flow
That's what the flow wants to do

[Intro repeat till end]            
Submit corrections


        Autumn Flow lessons Hard to play? Try these video lessons and learn fast Autumn Flow lessons
        
↑ Back to top | Tablatures and chords for acoustic guitar and electric guitar, ukulele, drums are parodies/interpretations of the original songs. You may use it for private study, scholarship, research or language learning purposes only