Home » L » Linkin Park »

Linkin Park - One More Light Chords

Artists:  A B C D E F G H I J K L M N O P Q R S T U V W X Y Z # 

One More Light Chords

(ver. 2) Click to play this song!
Linkin Park
[Intro/Verse]

e|---------------------------------------------------------------------------|
B|----0--0--0--0---0--0--0--0--0--0--0--0--0--0--0--0------------------------|
G|---------------------------------------------------------------------------|
D|--2--2--2--2----------------------------4--4--4--4-------------------------|
A|---------------3--3--3--3--------------------------------------------------|
E|---------------------------3--3--3--3--------------------------------------|

       E             C           G             F


 [Chorus End] (Well I do)

e|----0--0--0--0--0--0--0--0-------------------------------------------------|
B|---------------------------------------------------------------------------|
G|--1--1--1--1---------------------------------------------------------------|
D|---------------------------------------------------------------------------|
A|---------------------------------------------------------------------------|
E|--------------3--3--3--3---------------------------------------------------|

       A            G


[Intro]
Em  Cadd9  G  D/F#  x2

[Verse 1]
          E                  C          G       F
Should've stayed, were there signs, I ignored?
      E                C        G        F
Can I help you, not to hurt, anymore?
       E                    C            G     F
We saw brilliance, when the world, was asleep
          E                  C               D
There are things that we can have, but can't keep  if they say

[Chorus]
                      E 
Who cares if one more light goes out?
     C                G
In a sky of a million stars
It flickers, flickers
      F                  E 
Who cares when someone's time runs out?
     C                G
If a moment is all we are
We're quicker, quicker
       F              E
Who cares if one more light goes out?
      A    G    F
Well I...  do

[Verse 2]
      E                 C               G      F
The reminders, pull the floor from your feet
       E                 C              G      F
In the kitchen, one more chair than you need oh
           E              C                   G
And you're angry, and you should be, it's not fair
       F               E              C               D
Just 'cause you can't see it, doesn't mean it, isn't there  if they say

[Chorus]
                      E
Who cares if one more light goes out?
     C                G
In a sky of a million stars
It flickers, flickers
      F                  E 
Who cares when someone's time runs out?
     C                G
If a moment is all we are
We're quicker, quicker
      F               E
Who cares if one more light goes out?
      A    G    F
Well I...  do

[Bridge]
E   C   G   F
E   C   D

[Chorus]
                      E
Who cares if one more light goes out?
     C                G
In a sky of a million stars
It flickers, flickers
      F                  E
Who cares when someone's time runs out?
     Cadd9            G
If a moment is all we are
We're quicker, quicker
    D/F#              Em
Who cares if one more light goes out?
      Am   G
Well I...  do

Well I do            
Submit corrections

↑ Back to top | Tablatures and chords for acoustic guitar and electric guitar, ukulele, drums are parodies/interpretations of the original songs. You may use it for private study, scholarship, research or language learning purposes only