Home » L » Linkin Park »

Linkin Park - One More Light Tabs

Artists:  A B C D E F G H I J K L M N O P Q R S T U V W X Y Z # 

One More Light Tabs

(ver. 3) Click to play this song!
Linkin Park
[Intro]

e|----7---7---7---7-|---5---5---5---5-|---7---7---7---7-|---7---7---7---7----------|
B|------------------|-----------------|-----------------|--------------------------|
G|----0---0---0---0-|---0---0---0---0-|---0---0---0---7-|---0---7---7---0----------|
D|------------------|-----------------|-5---5---5---5---|-5---5---4---4------------|
A|--7---7---7---7---|-3---3---3---3---|-----------------|--------------------------|
E|------------------|-----------------|-----------------|--------------------------|

e|----7---7---7---7-|---5---5---5---5-|---7---7---7---7-|---7---7---7---7----------|
B|------------------|-----------------|-----------------|--------------------------|
G|----0---0---0---0-|---0---0---0---0-|---0---0---0---0-|---0---0---0---0----------|
D|------------------|-----------------|-5---5---5---5---|-5---5---4---4------------|
A|--7---7---7---7---|-3---3---3---3---|-----------------|--------------------------|
E|------------------|-----------------|-----------------|--------------------------|


[Verse 1]

e|----7---7---7---7-|---5---5---5---5-|---7---7---7---7-|---7---7---7---7----------|
B|------------------|-----------------|-----------------|--------------------------|
G|----0---0---0---0-|---0---0---0---0-|---0---0---0---7-|---0---7---7---7----------|
D|------------------|-----------------|-5---5---5---5---|-5---5---4---4------------|
A|--7---7---7---7---|-3---3---3---3---|-----------------|--------------------------|
E|------------------|-----------------|-----------------|--------------------------|

e|----7---7---7---7-|---5---5---5---5-|---7---7---7---7-|---7---7---7---7----------|
B|------------------|-----------------|-----------------|--------------------------|
G|----0---0---0---0-|---0---0---0---0-|---0---0---0---7-|---0---7---7---7----------|
D|------------------|-----------------|-5---5---5---5---|-5---5---4---4------------|
A|--7---7---7---7---|-3---3---3---3---|-----------------|--------------------------|
E|------------------|-----------------|-----------------|--------------------------|

e|----7---7---7---7-|---5---5---5---5-|---7---7---7---7-|---7---7---7---7----------|
B|------------------|-----------------|-----------------|--------------------------|
G|----0---0---0---0-|---0---0---0---0-|---0---0---0---0-|---0---0---0---0----------|
D|------------------|-----------------|-5---5---5---5---|-5---5---4---4------------|
A|--7---7---7---7---|-3---3---3---3---|-----------------|--------------------------|
E|------------------|-----------------|-----------------|--------------------------|

e|----7---7---7---7-|---5---5---5---5-|---5---5---5---5-|---5---5---5---5----------|
B|------------------|-----------------|-----------------|--------------------------|
G|----0---0---0---0-|---0---0---0---0-|---0---0---0---0-|---0---0---0---0----------|
D|------------------|-----------------|-----------------|--------------------------|
A|--7---7---7---7---|-3---3---3---3---|-5---5---5---5---|-5---5---5---5------------|
E|------------------|-----------------|-----------------|--------------------------|


[Chorus]

e|----7---7---7---7-|---5---5---5---5-|---7---7---7---7-|---7---7---7---7----------|
B|------------------|-----------------|-----------------|--------------------------|
G|----0---0---0---0-|---0---0---0---0-|---0---0---0---0-|---0---0---0---0----------|
D|------------------|-----------------|-5---5---5---5---|-5---5---4---4------------|
A|--7---7---7---7---|-3---3---3---3---|-----------------|--------------------------|
E|------------------|-----------------|-----------------|--------------------------|

e|----7---7---7---7-|---5---5---5---5-|---7---7---7---7-|---7---7---7---7----------|
B|------------------|-----------------|-----------------|--------------------------|
G|----0---0---0---0-|---0---0---0---0-|---0---0---0---0-|---0---0---0---0----------|
D|------------------|-----------------|-5---5---5---5---|-5---5---4---4------------|
A|--7---7---7---7---|-3---3---3---3---|-----------------|--------------------------|
E|------------------|-----------------|-----------------|--------------------------|

e|----7---7---7---7-|---5---5---5---5-|-----------------|--------------------------|
B|------------------|-----------------|---0---0---0---0-|---0---0---0---0----------|
G|----0---0---0---0-|---0---0---0---0-|---0---0---0---0-|---0---0---0---0----------|
D|------------------|-----------------|-----------------|--------------------------|
A|--7---7---7---7---|-5---5---5---5---|-----------------|--------------------------|
E|------------------|-----------------|-3---3---3---3---|-3---3---2---2------------|


[Verse 2]

e|----7---7---7---7-|---5---5---5---5-|---7---7---7---7-|---7---7---7---7----------|
B|------------------|-----------------|-----------------|--------------------------|
G|----0---0---0---0-|---0---0---0---0-|---0---0---0---7-|---0---7---0---0----------|
D|------------------|-----------------|-5---5---5---5---|-5---5---4---4------------|
A|--7---7---7---7---|-3---3---3---3---|-----------------|--------------------------|
E|------------------|-----------------|-----------------|--------------------------|

e|----7---7---7---7-|---5---5---5---5-|---7---7---7---7-|---7---7---7---7----------|
B|------------------|-----------------|-----------------|--------------------------|
G|----0---0---0---0-|---0---0---0---0-|---0---0---0---7-|---0---7---7---7----------|
D|------------------|-----------------|-5---5---5---5---|-5---5---4---4------------|
A|--7---7---7---7---|-3---3---3---3---|-----------------|--------------------------|
E|------------------|-----------------|-----------------|--------------------------|

e|----7---7---7---7-|---5---5---5---5-|---7---7---7---7-|---7---7---7---7----------|
B|------------------|-----------------|-----------------|--------------------------|
G|----0---0---0---0-|---0---0---0---0-|---0---0---0---0-|---0---0---0---0----------|
D|------------------|-----------------|-5---5---5---5---|-5---5---4---4------------|
A|--7---7---7---7---|-3---3---3---3---|-----------------|--------------------------|
E|------------------|-----------------|-----------------|--------------------------|

e|----7---7---7---7-|---5---5---5---5-|---5---5---5---5-|---5---5---5---5----------|
B|------------------|-----------------|-----------------|--------------------------|
G|----0---0---0---0-|---0---0---0---0-|---0---0---0---0-|---0---0---0---0----------|
D|------------------|-----------------|-----------------|--------------------------|
A|--7---7---7---7---|-3---3---3---3---|-5---5---5---5---|-5---5---5---5------------|
E|------------------|-----------------|-----------------|--------------------------|


[Chorus]

e|----7---7---7---7-|---5---5---5---5-|---7---7---7---7-|---7---7---7---7----------|
B|------------------|-----------------|-----------------|--------------------------|
G|----0---0---0---0-|---0---0---0---0-|---0---0---0---0-|---0---0---0---0----------|
D|------------------|-----------------|-5---5---5---5---|-5---5---4---4------------|
A|--7---7---7---7---|-3---3---3---3---|-----------------|--------------------------|
E|------------------|-----------------|-----------------|--------------------------|

e|----7---7---7---7-|---5---5---5---5-|---7---7---7---7-|---7---7---7---7----------|
B|------------------|-----------------|-----------------|--------------------------|
G|----0---0---0---0-|---0---0---0---0-|---0---0---0---0-|---0---0---0---0----------|
D|------------------|-----------------|-5---5---5---5---|-5---5---4---4------------|
A|--7---7---7---7---|-3---3---3---3---|-----------------|--------------------------|
E|------------------|-----------------|-----------------|--------------------------|

e|----7---7---7---7-|---5---5---5---5-|-----------------|--------------------------|
B|------------------|-----------------|---0---0---0---0-|---0---0---0---0----------|
G|----0---0---0---0-|---0---0---0---0-|---0---0---0---0-|---0---0---0---0----------|
D|------------------|-----------------|-----------------|--------------------------|
A|--7---7---7---7---|-5---5---5---5---|-----------------|--------------------------|
E|------------------|-----------------|-3---3---3---3---|-3---3---2---2------------|


[Solo]

e|-------------------------------------10-10-10--------------------------------------10-10-10--|
B|--12-12-12-12-12-12-12-10-10-8-8-8-8----------10-10-10-8-10-10-10-12-12-10-8-8-8-8-----------|
G|---------------------------------------------------------------------------------------------|
D|---------------------------------------------------------------------------------------------|
A|---------------------------------------------------------------------------------------------|
E|---------------------------------------------------------------------------------------------|

e|-----------------------------------10-10-10-10-----------------------------------------------|
B|--10-10-10-8-10-10-10-12-12-10-8-8------------10-10-10-8-10-10-10-12-12-8-10-10-10-12-12-12--|
G|---------------------------------------------------------------------------------------------|
D|---------------------------------------------------------------------------------------------|
A|---------------------------------------------------------------------------------------------|
E|---------------------------------------------------------------------------------------------|

e|---------------------------------------------------------------------------|
B|--10-10-10-10-10-10-10-10--------------------------------------------------|
G|---------------------------------------------------------------------------|
D|---------------------------------------------------------------------------|
A|---------------------------------------------------------------------------|
E|---------------------------------------------------------------------------|


[Chorus]

e|----7---7---7---7-|---5---5---5---5-|---7---7---7---7-|---7---7---7---7----------|
B|------------------|-----------------|-----------------|--------------------------|
G|----0---0---0---0-|---0---0---0---0-|---0---0---0---0-|---0---0---0---0----------|
D|------------------|-----------------|-5---5---5---5---|-5---5---4---4------------|
A|--7---7---7---7---|-3---3---3---3---|-----------------|--------------------------|
E|------------------|-----------------|-----------------|--------------------------|

e|----7---7---7---7-|---5---5---5---5-|---7---7---7---7-|---7---7---7---7----------|
B|------------------|-----------------|-----------------|--------------------------|
G|----0---0---0---0-|---0---0---0---0-|---0---0---0---0-|---0---0---0---0----------|
D|------------------|-----------------|-5---5---5---5---|-5---5---4---4------------|
A|--7---7---7---7---|-3---3---3---3---|-----------------|--------------------------|
E|------------------|-----------------|-----------------|--------------------------|

e|----7---7---7---7-|---5---5---5---5-|-----------------|--------------------------|
B|------------------|-----------------|---0---0---0---0-|---0---0---0---0----------|
G|----0---0---0---0-|---0---0---0---0-|---0---0---0---0-|---0---0---0---0----------|
D|------------------|-----------------|-----------------|--------------------------|
A|--7---7---7---7---|-5---5---5---5---|-----------------|--------------------------|
E|------------------|-----------------|-3---3---3---3---|-3---3---3---3------------|
            
Submit corrections

↑ Back to top | Tablatures and chords for acoustic guitar and electric guitar, ukulele, drums are parodies/interpretations of the original songs. You may use it for private study, scholarship, research or language learning purposes only