Home » L » Letters To Cleo »

Letters To Cleo - I Want You To Want Me Tabs

Artists:  A B C D E F G H I J K L M N O P Q R S T U V W X Y Z # 

I Want You To Want Me Tabs

(ver. 2) Click to play this song!
Letters To Cleo
[Intro]
  Gtr 1
e|------------------------------------------------------------------------|
B|---------8b----r8b------------------------------------------------------|
G|---------7b----r7b---7---5-------7br5----3----2-----5-------------------|
D|----------------------------------------------------5-------------------|
A|----------------------------------------------------3-------------------|
E|------------------------------------------------------------------------|
 |Gtr 2                                                                   |
e|------------------------------------------------------------------------|
B|------------------------------------------------------------------------|
G|---------5------5--------5----------------3----------5------------------|
D|---------5------5--------5----------------3----3-----5------------------|
A|---------3------3--------3----------------1----3-----3------------------|
E|-----------------------------------------------1------------------------|
          C                                Bb   F     C
 
[Verse]
Gtr 1 & 2
  PM................................................................
e|------------------------------------------------------------------------|
B|------------------------------------------------------------------------|
G|--5-5-5-5-5-5-5-5-5-5-5-5-5-5-5-5-2-2-2-2-2-2-2-2-2-2-2-2---------------|
D|--5-5-5-5-5-5-5-5-5-5-5-5-5-5-5-5-2-2-2-2-2-2-2-2-2-2-2-2-5-5-5-5-5-----|
A|--3-3-3-3-3-3-3-3-3-3-3-3-2-2-2-2-0-0-0-0-0-0-0-0-0-0-0-0-5-5-5-5-5-----|
E|----------------------------------------------------------3-3-3-3-3-----|
   C                       C/B     A                       G
  PM................................................................
e|------------------------------------------------------------------------|
B|------------------------------------------------------------------------|
G|----------------------------------5-5-5-5-5-5-5-5-5-5-5-5-5-5-5-5-------|
D|--3-3-3-3-3-3-3-3-3-3-3-3-3-3-3-3-5-5-5-5-5-5-5-5-5-5-5-5-5-5-5-5-------|
A|--3-3-3-3-3-3-3-3-3-3-3-3-3-3-3-3-3-3-3-3-3-3-3-3-3-3-3-3-2-2-2-2-------|
E|--1-1-1-1-1-1-1-1-1-1-1-1-0-0-0-0---------------------------------------|
   F                       F/E     C                       C/B
(Repeat x1)
 
 
[Pre-Chorus]
Gtr 1
e|------------------------------------------------------------------------|
B|------------------------------------------------------------------------|
G|--12b-12br-12-12h14p12-11-10-9----12b-12br-12-12h14p12-11--10-----9-----|
D|------------------------------------------------------------------------|
A|------------------------------------------------------------------------|
E|------------------------------------------------------------------------|
 |Gtr 2                                                                   |
e|------------------------------------------------------------------------|
B|------------------------------------------------------------------------|
G|--------------2-------7---3---5------------2----------7-----3------2----|
D|--------------2-------7---3---5------------2----------7-----3------2----|
A|--------------0-------5---1---3------------0----------5-----1------0----|
E|------------------------------------------------------------------------|
               A       D   Bb  C            A          D     Bb     A
 
 
[Chorus]
Gtr 1 & 2
e|------------------------------------------------------------------------------|
B|------------------------------------------------------------------------------|
G|---5-5-5-5-5-5-5-5-----------------------------------10-10-10-10-10-10-10-10--|
D|---5-5-5-5-5-5-5-5--5---5---5---5----7-7-7-7-7-7-7-7-10-10-10-10-10-10-10-10--| x2
A|---3-3-3-3-3-3-3-3--5-7-5-7-5-7-5-7--7-7-7-7-7-7-7-7-8--8--8--8--8--8--8--8---|
E|--------------------3-3-3-3-3-3-3-3--5-5-5-5-5-5-5-5--------------------------|
 
Gtr 1 - End of Chorus 1
e|------------------------------------------------------------------------|
B|--------10-------9--------8---------6-----------------------------------|
G|------------------------------------------------------------------------|
D|----10------10-------9---------8----------------------------------------|
A|------------------------------------------------------------------------|
E|------------------------------------------------------------------------|
 
 
[Verse 2]
  Gtr 1
e|------------------------------------------------------------------------|
B|------------------------------------------------------------------------|
G|--5~~~~~~~~------7br5--7br5--7br5~~~~~~~-----------7br5--7br5--7br5-----|
D|------------------------------------------------------------------------|
A|------------------------------------------------------------------------|
E|------------------------------------------------------------------------|
 | Gtr 2                                                                  |
 |  PM................................................................    |
e|------------------------------------------------------------------------|
B|------------------------------------------------------------------------|
G|--5-5-5-5-5-5-5-5-5-5-5-5-5-5-5-5-2-2-2-2-2-2-2-2-2-2-2-2---------------|
D|--5-5-5-5-5-5-5-5-5-5-5-5-5-5-5-5-2-2-2-2-2-2-2-2-2-2-2-2-5-5-5-5-5-----|
A|--3-3-3-3-3-3-3-3-3-3-3-3-2-2-2-2-0-0-0-0-0-0-0-0-0-0-0-0-5-5-5-5-5-----|
E|----------------------------------------------------------3-3-3-3-3-----|
   C                       C/B     A                       G
 
  Gtr 1
e|------------------------------------------------------------------------|
B|--10~~~~~~~-8~~~~~~-6~~~~~~~~~------------------------------------------|
G|------------------------------------------------------------------------|
D|------------------------------------------------------------------------|
A|------------------------------------------------------------------------|
E|------------------------------------------------------------------------|
 | Gtr 2                                                                  |
 |  PM................................................................    |
e|------------------------------------------------------------------------|
B|------------------------------------------------------------------------|
G|----------------------------------5-5-5-5-5-5-5-5-5-5-5-5-5-5-5-5-------|
D|--3-3-3-3-3-3-3-3-3-3-3-3-3-3-3-3-5-5-5-5-5-5-5-5-5-5-5-5-5-5-5-5-------|
A|--3-3-3-3-3-3-3-3-3-3-3-3-3-3-3-3-3-3-3-3-3-3-3-3-3-3-3-3-2-2-2-2-------|
E|--1-1-1-1-1-1-1-1-1-1-1-1-0-0-0-0---------------------------------------|
   F                       F/E     C                       C/B
 
 
(REPEAT PRE-CHORUS)
 
 
[Chorus]
  Gtr 1
e|-------------------------------------------------------------------------------|
B|-----------------------------------------------------8-8---8-8-8---------------|
G|-----------------------------------------------------8-8---8-8-8---------------|
D|-----------------------------------------------------8-8---8-8-8---------------|
A|------------------------------------------------------------------10\----------|
E|-------------------------------------------------------------------------------|
 | Gtr 2                                                                         |
e|-------------------------------------------------------------------------------|
B|-------------------------------------------------------------------------------|
G|---5-5-5-5-5-5-5-5------------------------------------10-10-10-10-10-10-10-10--|
D|---5-5-5-5-5-5-5-5--5---5---5---5----7-7-7-7-7-7-7-7--10-10-10-10-10-10-10-10--|
A|---3-3-3-3-3-3-3-3--5-7-5-7-5-7-5-7--7-7-7-7-7-7-7-7--8--8--8--8--8--8--8--8---|
E|--------------------3-3-3-3-3-3-3-3--5-5-5-5-5-5-5-5---------------------------|
    C                G                A                F                                    
 
  Gtr 1 & 2
e|------------------------------------------------------------------------------|
B|------------------------------------------------------------------------------|
G|---5-5-5-5-5-5-5-5-----------------------------------10-10-10-10-10-10-10-10--|
D|---5-5-5-5-5-5-5-5--5---5---5---5----7-7-7-7-7-7-7-7-10-10-10-10-10-10-10-10--|
A|---3-3-3-3-3-3-3-3--5-7-5-7-5-7-5-7--7-7-7-7-7-7-7-7-8--8--8--8--8--8--8--8---|
E|--------------------3-3-3-3-3-3-3-3--5-5-5-5-5-5-5-5--------------------------|
    C                G                A                F  
 
 
[Solo 1]
(Gtr 2 plays Chorus riff)
Gtr 1
e|------15-----15-----15-----15-----15-----15-----15----------------------|
B|--15b----15b----15b----15b----15b----15b----15b----15b--13~~~-----------|
G|------------------------------------------------------------------------|
D|------------------------------------------------------------------------|
A|------------------------------------------------------------------------|
E|------------------------------------------------------------------------|    
 
e|----------8-----------------------------------------------------|
B|--11b-----------------------------------------------------------|
G|---------------10b---8h10p8-----8-------------------------------|
D|-----------------------------10---10p8----8---------------------|
A|---------------------------------------10---10p8---6------------|
E|-------------------------------------------------------8--------|   
 
 
[Chorus]
  Gtr 1 & 2
e|------------------------------------------------------------------------------|
B|------------------------------------------------------------------------------|
G|---5-5-5-5-5-5-5-5-----------------------------------10-10-10-10-10-10-10-10--|
D|---5-5-5-5-5-5-5-5--5---5---5---5----7-7-7-7-7-7-7-7-10-10-10-10-10-10-10-10--|
A|---3-3-3-3-3-3-3-3--5-7-5-7-5-7-5-7--7-7-7-7-7-7-7-7-8--8--8--8--8--8--8--8---|
E|--------------------3-3-3-3-3-3-3-3--5-5-5-5-5-5-5-5--------------------------|
    C                G                A                F  
 
 
[Solo 2]
(Gtr 2 plays Chorus riff)
e|------8-----8-----8-----8-----8-----8-----8--------|
B|--11b---11b---11b---11b---11b---11b---11b---15b15b-|
G|---------------------------------------------------|
D|---------------------------------------------------|
A|---------------------------------------------------|
E|---------------------------------------------------|
 
e|--15-15---15-15-15-----------------------15-17-----|
B|--15-15---16-16-16--------13----13----13/16-18-----|
G|--------------------12/14----14----14--------------|
D|---------------------------------------------------|
A|---------------------------------------------------|
E|---------------------------------------------------|
 
 
[Verse 3]
Gtr 1
e|-------------15---------15--------15----------------15---------15-------|
B|-------------15br-13----15br-13---15br-13~~~~-------15br-13----15br-13--|
G|------------------------------------------------------------------------|
D|------------------------------------------------------------------------|
A|------------------------------------------------------------------------|
E|------------------------------------------------------------------------|   
 | Gtr 2                                                                  |
 |  PM................................................................    |
e|------------------------------------------------------------------------|
B|------------------------------------------------------------------------|
G|--5-5-5-5-5-5-5-5-5-5-5-5-5-5-5-5-2-2-2-2-2-2-2-2-2-2-2-2---------------|
D|--5-5-5-5-5-5-5-5-5-5-5-5-5-5-5-5-2-2-2-2-2-2-2-2-2-2-2-2-5-5-5-5-5-----|
A|--3-3-3-3-3-3-3-3-3-3-3-3-2-2-2-2-0-0-0-0-0-0-0-0-0-0-0-0-5-5-5-5-5-----|
E|----------------------------------------------------------3-3-3-3-3-----|
   C                       C/B     A                       G
 
 Gtr 1
e|--15--------17~~~~---15~~~~~---13~~~~~~---21b--20~~~~---15----------------|
B|--15br-13-----------------------------------------------15b--13h15p13~~~--|
G|--------------------------------------------------------------------------|
D|--------------------------------------------------------------------------|
A|--------------------------------------------------------------------------|
E|--------------------------------------------------------------------------|
 | Gtr 2
 |  PM................................................................      |
e|--------------------------------------------------------------------------|
B|--------------------------------------------------------------------------|
G|----------------------------------5-5-5-5-5-5-5-5-5-5-5-5-5-5-5-5---------|
D|--3-3-3-3-3-3-3-3-3-3-3-3-3-3-3-3-5-5-5-5-5-5-5-5-5-5-5-5-5-5-5-5---------|
A|--3-3-3-3-3-3-3-3-3-3-3-3-3-3-3-3-3-3-3-3-3-3-3-3-3-3-3-3-2-2-2-2---------|
E|--1-1-1-1-1-1-1-1-1-1-1-1-0-0-0-0-----------------------------------------|
   F                       F/E     C                       C/B
 
 
Break
Gtr 1 Lick
e|--------------------------------------------------------------------------|
B|---8-8-8---8-8-8\---------------------------------------------------------|
G|---8-8-8---8-8-8\---------------------------------------------------------|
D|---8-8-8---8-8-8\---------------------------------------------------------|
A|--------------------------------------------------------------------------|
E|--------------------------------------------------------------------------|
            
Submit corrections

↑ Back to top | Tablatures and chords for acoustic guitar and electric guitar, ukulele, drums are parodies/interpretations of the original songs. You may use it for private study, scholarship, research or language learning purposes only