Home » L » Letters To Cleo »

Letters To Cleo - I Want You To Want Me Tabs

Artists:  A B C D E F G H I J K L M N O P Q R S T U V W X Y Z # 

I Want You To Want Me Tabs

(ver. 1) Click to play this song!
Letters To Cleo
Intro played with riff 1
    1 2 3 4  1 2 3 4  1 2 3 4  1 2 3 4
e|-----------------------------------------------------------------|
B|-----------------------------------------------------------------|
G|--3--------2--------x---x----6-----------------------------------|
D|--2--------1--------5---7----5-----------------------------------|
A|--4--------2--------5---7----7-----------------------------------|
E|--2--------x--------3---5----5-----------------------------------|

 Riff 1   
e|-----------------------------------------------------------------|
B|-----------------------------------------------------------------|
G|--7b9----7b9r7p5-7b-7b-5---7b9r7p5----------6--------------------|
D|------------------------------------5---7------------------------|
A|-----------------------------------------------------------------|
E|-----------------------------------------------------------------|

verse 1
    1 2 3 4 1 2 3 4  1 2 3 4 1 2 3 4  1 2 3 4 1 2 3 4  1 2 3 4 1 2 3 4
e|--------------------------------------------------------------------|
B|--------------------------------------------------------------------|
G|--------------------------------------------------------------------|
D|------------------------------------7-7-7-7-7-7-7-7-----------------|
A|--7-7-7-7-7-7-7-7--4-4-4-4-4-4-0-0--5-5-5-5-5-5-4-4--7-7-7-7-7-7-7-7|
E|--5-5-5-5-5-5-4-4--2-2-2-2-2-2-0-0-------------------5-5-5-5-5-5-4-4|
  pm.........   ...  .........   ...  .........   ...  .........   ...

    1 2 3 4 1 2 3 4  1 2 3 4 1 2 3 4  1 2 3 4 1 2 3 4 
e|-----------------------------------------------------|
B|-----------------------------------------------------|
G|-----------------------------------------------------|
D|-------------------7-7-7-7-7-7-7-7-------------------|
A|--4-4-4-4-4-4-0-0--5-5-5-5-5-5-4-4--7-7-7-7-7-7-7-7--|
E|--2-2-2-2-2-2-0-0-------------------5-5-5-5-5-5-5-5--|
  pm.........   ...  .........   ...  ...........

prechorus played with riff 2
    1 2 3 4 1 2 3 4  1 2 3 4 1 2 3 4 1 2 3 4
e|-----------------------------------------------------------------|
B|-----------------------------------------------------------------|
G|--3---2---x---x----3---2---x-------x-----------------------------|
D|--2---1---5---7----2---1---5-------4-----------------------------|
A|--4---2---5---7----4---2---5-------4-----------------------------|
E|--2---x---3---5----2---x---3-------2-----------------------------|

 Riff 2
e|-----------------------------------------------------------------|
B|-----------------------------------------------------------------|
G|--12b14-12b14--12~--12-11~--11-10~--10-9~-9-9s12~--12-11~--------|
D|-----------------------------------------------------------------|
A|-----------------------------------------------------------------|
E|-----------------------------------------------------------------|

e|-----------------------------------------------------------------|
B|-----------------------------------------------------------------|
G|--11-10~-----9~--------------------------------------------------|
D|-----------------------------------------------------------------|
A|-----------------------------------------------------------------|
E|-----------------------------------------------------------------|

chorus play riff 3, 4 and 5 alternately
    1  2  3  4   1  2  3  4   1  2  3  4   1  2  3  4
e|-----------------------------------------------------------------|
B|-----------------------------------------7-7-7-7-7-7-------------|
G|-----------------------------------------5-5-5-5-5-5-------------|
D|--24-24-24-24----------------------------7-7-7-7-7-7-------------|
A|--00-00-00-00--24-24-24-24--4-4-4-4-4-4--5-5-5-5-5-5-------------|
E|---------------00-00-00-00--2-2-2-2-2-2--------------------------|
  pm........ ........ ........ 
  
    1  2  3  4   1  2  3  4   1  2  3  4   1  2  3  4
e|-----------------------------------------------------------------|
B|-----------------------------------------7-7-7-7-7-7-------------|
G|-----------------------------------------5-5-5-5-5-5-------------|
D|--24-24-24-24----------------------------7-7-7-7-7-7-------------|
A|--00-00-00-00--24-24-24-24--4-4-4-4-4-4--5-5-5-5-5-5-------------|
E|---------------00-00-00-00--2-2-2-2-2-2--------------------------|
  pm...........  ...........  ........... 
 
Riff 3
e|----7---6---5---4------------------------------------------------|
B|-----------------------------------------------------------------|
G|-s7---6---5---4--------------------------------------------------|
D|-----------------------------------------------------------------|
A|-----------------------------------------------------------------|
E|-----------------------------------------------------------------|

Riff 4
e|-----------------------------------------------------------------|
B|-----------------------------------------------------------------|
G|--7b-7b-7b9r7p5-7b-7b-5~-----------------------------------------|
D|-----------------------------------------------------------------|
A|-----------------------------------------------------------------|
E|-----------------------------------------------------------------|

Riff 5
e|-----5---7--s9---------------------------------------------------|
B|-----------------------------------------------------------------|
G|--s5--s7---------------------------------------------------------|
D|-----------------------------------------------------------------|
A|-----------------------------------------------------------------|
E|-----------------------------------------------------------------|

Riff 6 played during second verse 
e|-----------------------------------------------------------------|
B|-----------------------------------------------------------------|
G|--5~-----------7b9r7p5-7b9r7p5-7b9r7p5-5~------------------------|
D|-----------------------------------------------------------------|
A|-----------------------------------------------------------------|
E|-----------------------------------------------------------------|

e|-----------------------------------------------------------------|
B|-----------------------------------------------------------------|
G|-7b9r7p5-7b9r7p5-7b9r7p5-5~--4~--3~------------------------------|
D|-----------------------------------------------------------------|
A|-----------------------------------------------------------------|
E|-----------------------------------------------------------------|

Solo 1
e|-------15-------15-------15-------15-------15-------15-------15--|
B|-15b17----15b17----15b17----15b17----15b17----15b17----15b17-----|
G|-----------------------------------------------------------------|
D|-----------------------------------------------------------------|
A|-----------------------------------------------------------------|
E|-----------------------------------------------------------------|

e|-------15--------------------------------------------------------|
B|-15b17----r15-13~------------12~---------------------------------|
G|----------------------14b16----------14p12--12--14p12--12--------|
D|------------------------------------------14---------14----------|
A|-----------------------------------------------------------------|
E|-----------------------------------------------------------------|

e|-----------------------------------------------------------------|
B|-----------------------------------------------------------------|
G|-12p14-----------------------------------------------------------|
D|-------12p14----12--12p14----------------------------------------|
A|-------------14------------14-12s10-12p10------------------------|
E|------------------------------------------12-10s-----------------|

Solo 2
e|-----------------------------------------------------------------|
B|-------12-------12-------12-------12-------12-------12-------12--|
G|-14b16----14b16----14b16----14b16----14b16----14b16----14b16-----|
D|-----------------------------------------------------------------|
A|-----------------------------------------------------------------|
E|-----------------------------------------------------------------|

e|---------------------------12-12--14--14--14-------12-----14-----|
B|-------12--------15b-15b---12-12--14--14--14---------------------|
G|-14b16----r14p12-----------12-12--14--14--14---s12----s14--------|
D|-----------------------------------------------------------------|
A|-----------------------------------------------------------------|
E|-----------------------------------------------------------------|

e|--15--17---------------------------------------------------------|
B|--15--17---------------------------------------------------------|
G|-----------------------------------------------------------------|
D|-----------------------------------------------------------------|
A|-----------------------------------------------------------------|
E|-----------------------------------------------------------------|

Riff 7 played during third verse
e|-----------------------------------------------------------------|
B|-----------------------------------------------------------------|
G|--19b21r19p17-19b21r19p17-19b21r19p17-17~------------------------|
D|-----------------------------------------------------------------|
A|-----------------------------------------------------------------|
E|-----------------------------------------------------------------|

e|-----------------------------------------------------------------|
B|-----------------------------------------20b22-20~---20-20-19----|
G|--19b21r19p17-19b21r19p17-19b21r19p17----------------------------|
D|-----------------------------------------------------------------|
A|-----------------------------------------------------------------|
E|-----------------------------------------------------------------|

e|--20b22-20~------------------------------------------------------|
B|-----------------------------------------------------------------|
G|-----------------19b-19b--17~------------------------------------|
D|-----------------------------------------------------------------|
A|-----------------------------------------------------------------|
E|-----------------------------------------------------------------|

Riff 8 played during third verse
e|------5-5-5--5s--------------------------------------------------|
B|------5-5-5--5s--------------------------------------------------|
G|------7-7-7--7s--------------------------------------------------|
D|-----------------------------------------------------------------|
A|-----------------------------------------------------------------|
E|-----------------------------------------------------------------|

The riffs that I've notated aren't a 100% accurate but it's basically
all just improvisations on the minor pentatonic scale.You dont have to
stick to the exact same licks while playing this song you could just 
come up with something of your own like most bands do playing this 
cheap trick classic.Anyway if you have any questions suggestions please

this is a work of khoo

Proud to be Malaysian too
            
Submit corrections

↑ Back to top | Tablatures and chords for acoustic guitar and electric guitar, ukulele, drums are parodies/interpretations of the original songs. You may use it for private study, scholarship, research or language learning purposes only