» » »

Less Than Jake - Growning Up On A Couch Tabs

Artists:  A B C D E F G H I J K L M N O P Q R S T U V W X Y Z # 

Growning Up On A Couch Tabs

(ver. 1) Click to play this song!
Less Than Jake
 Rating:
4/5 (4 votes)

 Growning Up On A Couch lessons Tabs too difficult? Try these video lessons and learn fast
 
                Growing Up On A Couch



-5--5--5--5--5--3--3--3--3--3--0--0--0--0--0--0--0--0--0--0-
-6--6--6--6--6--3--3--3--3--3--0--0--0--0--0--1--1--1--1--1-
-7--7--7--7--7--4--4--4--4--4--1--1--1--1--1--0--0--0--0--0-
-7--7--7--7--7--5--5--5--5--5--2--2--2--2--2--2--2--2--2--2-
-5--5--5--5--5--5--5--5--5--5--2--2--2--2--2--3--3--3--3--3-
-5--5--5--5--5--3--3--3--3--3--0--0--0--0--0--0--0--0--0--0-

-3-3-3-3-3-5-5-5-5-5-0-0-0-0-0-0-0-0-0-0-
-3-3-3-3-3-6-6-6-6-6-0-0-0-0-0-1-1-1-1-1-
-4-4-4-4-4-7-7-7-7-7-1-1-1-1-1-0-0-0-0-0-
-5-5-5-5-5-7-7-7-7-7-2-2-2-2-2-2-2-2-2-2-
-5-5-5-5-5-5-5-5-5-5-2-2-2-2-2-3-3-3-3-3-
-3-3-3-3-3-5-5-5-5-5-0-0-0-0-0-0-0-0-0-0-

-5-5-5-5-5-3-3-3-3-3-0-0-0-0-0-0-0-0-0-0-
-6-6-6-6-6-3-3-3-3-3-0-0-0-0-0-1-1-1-1-1-
-7-7-7-7-7-4-4-4-4-4-1-1-1-1-1-0-0-0-0-0-
-7-7-7-7-7-5-5-5-5-5-2-2-2-2-2-2-2-2-2-2-
-5-5-5-5-5-5-5-5-5-5-2-2-2-2-2-3-3-3-3-3-
-5-5-5-5-5-3-3-3-3-3-0-0-0-0-0-0-0-0-0-0-

-3-3-3-3-3-5-5-5-5-5-0-0-0-0-0-0-0-0-0-0-0-0-0-0-0-0-0-0-0-0-0-0-0-
-3-3-3-3-3-6-6-6-6-6-0-0-0-0-0-1-1-1-1-1-1-1-1-1-1-1-1-1-1-1-1-1-1-
-4-4-4-4-4-7-7-7-7-7-1-1-1-1-1-0-0-0-0-0-0-0-0-0-0-0-0-0-0-0-0-0-0-
-5-5-5-5-5-7-7-7-7-7-2-2-2-2-2-2-2-2-2-2-2-2-2-2-2-2-2-2-2-2-2-2-2-
-5-5-5-5-5-5-5-5-5-5-2-2-2-2-2-3-3-3-3-3-3-3-3-3-3-3-3-3-3-3-3-3-3-
-3-3-3-3-3-5-5-5-5-5-0-0-0-0-0-0-0-0-0-0-0-0-0-0-0-0-0-0-0-0-0-0-0-

-3-3-3-3-3-0-0-0-0-5-5-5-5-5---------
-3-3-3-3-3-1-1-1-1-6-6-6-6-6---------
-4-4-4-4-4-0-0-0-0-7-7-7-7-7---------
-5-5-5-5-5-2-2-2-2-7-7-7-7-7---------
-5-5-5-5-5-3-3-3-3-5-5-5-5-5---2-3-2-
-3-3-3-3-3-0-0-0-0-5-5-5-5-5-3-------

-3-3-3-3-3-0-0-0-0-0-0-0-0-0-0-0-0-0-0-0
-3-3-3-3-3-1-1-1-1-1-1-1-1-1-1-1-1-1-1-1
-4-4-4-4-4-0-0-0-0-0-0-0-0-0-0-0-0-0-0-0
-5-5-5-5-5-2-2-2-2-2-2-2-2-2-2-2-2-2-2-2
-5-5-5-5-5-3-3-3-3-3-3-3-3-3-3-3-3-3-3-3
-3-3-3-3-3-0-0-0-0-0-0-0-0-0-0-0-0-0-0-0

Repeat

-5-
-6-
-7-
-7-
-5-
-5-
Mute
-5-5-5-5-5-3-3-3-3-3-0-0-0-0-0-0-0-0-0-0-----------
-6-6-6-6-6-3-3-3-3-3-0-0-0-0-0-1-1-1-1-1-------7---
-7-7-7-7-7-4-4-4-4-4-1-1-1-1-1-0-0-0-0-0-----5---7-
-7-7-7-7-7-5-5-5-5-5-2-2-2-2-2-2-2-2-2-2---5-------
-5-5-5-5-5-5-5-5-5-5-2-2-2-2-2-3-3-3-3-3-7---------
-5-5-5-5-5-3-3-3-3-3-0-0-0-0-0-0-0-0-0-0-----------
            
Submit corrections


        Growning Up On A Couch lessons Hard to play? Try these video lessons and learn fast Growning Up On A Couch lessons
        
↑ Back to top | Tablatures and chords for acoustic guitar and electric guitar, ukulele, drums are parodies/interpretations of the original songs. You may use it for private study, scholarship, research or language learning purposes only