» » »

Less Than Jake - Goodbye In Gasoline Tabs

Artists:  A B C D E F G H I J K L M N O P Q R S T U V W X Y Z # 

Goodbye In Gasoline Tabs

(ver. 1) Click to play this song!
Less Than Jake
 Rating:
4/5 (4 votes)

 Goodbye In Gasoline lessons Tabs too difficult? Try these video lessons and learn fast
 
                



INTRO:  (light distortion)

     G       D      A      C
e|------------------------------|
B|------------------------------|
G|-----------7~------------5~---|
D|---5~------7~-----7~-----5~---|        (X4)
A|---5~------5~-----7~-----3~---|       
E|---3~-------------5~----------|

VERSE:  (heavy distortion)

e|------------------------------|
B|------------------------------|
G|----------7-----------5-------|
D|---5------7-----7-----5-------|        (X4)
A|---5------5-----7-----3-------|     (On the last one, let the A ring a  
E|---3------------5-------------|      little bit then hit the C)

CHORUS:

e|-------------------|
B|-------------------|
G|-------5-----------|
D|---3---5---5---7---|
A|---3---3---5---7---|
E|---1-------3---5---|


BRIDGE:

e|-------------------|   Do you know how many times
B|-------------------|   How many times I've counted the signs of State lines
G|---7-------5-------|   and roads I've known.
D|---7---3---5---5---|   I know, this time, feels like goodbye.
A|---5---3---3---5---|
E|-------1-------3---|
            
Submit corrections


        Goodbye In Gasoline lessons Hard to play? Try these video lessons and learn fast Goodbye In Gasoline lessons
        
↑ Back to top | Tablatures and chords for acoustic guitar and electric guitar, ukulele, drums are parodies/interpretations of the original songs. You may use it for private study, scholarship, research or language learning purposes only