» » »

Less Than Jake - Evil Has No Boundries Tabs

Artists:  A B C D E F G H I J K L M N O P Q R S T U V W X Y Z # 

Evil Has No Boundries Tabs

(ver. 1) Click to play this song!
Less Than Jake
 Rating:
4/5 (4 votes)

 Evil Has No Boundries lessons Tabs too difficult? Try these video lessons and learn fast
 
                Evil has no boundaries 
*slayer cover*


Less than jake


        

 
e:------------------------------------------------------------|
B:------------------------------------------------------------|
G:------------------------------------------------------------|
D:--7-9----------7-9-----------7-9-------------------6--7-----|
A:--5-7----------5-7-----------5-7------------9--7---4--5-----|
E:------0-0-0-0-------0-0-0-0--------0-0-0-0--7--5---------0--|
                                             
e:--------------------------------------------------------|
B:--------------------------------------------------------|
G:--------------------------------------------------------|
D:-7-9----------7-9------------7-9-------------------10---|
A:-5-7----------5-7------------5-7-----------9---7---8----|
E:-----0-0-0-0-------0-0-0-0-------0-0-0-0---7---5--------|

e:------------------------------------------------------------|
B:------------------------------------------------------------|
G:------------------------------------------------------------|
D:--7-9----------7-9-----------7-9-------------------6--7-----|
A:--5-7----------5-7-----------5-7------------9--7---4--5-----|
E:------0-0-0-0-------0-0-0-0--------0-0-0-0--7--5---------0--|
                                             
e:--------------------------------------------------------|
B:--------------------------------------------------------|
G:--------------------------------------------------------|
D:-7-9----------7-9------------7-9-------------------10---|
A:-5-7----------5-7------------5-7-----------9---7---8----|
E:-----0-0-0-0-------0-0-0-0-------0-0-0-0---7---5--------|

verse
e:------------------------------------------------------------|
B:------------------------------------------------------------|
G:------------------------------------------------------------|
D:--7-9----------7-9-----------7-9-------------------6--7-----|
A:--5-7----------5-7-----------5-7------------9--7---4--5-----|
E:------0-0-0-0-------0-0-0-0--------0-0-0-0--7--5---------0--|
                                             
e:--------------------------------------------------------|
B:--------------------------------------------------------|
G:--------------------------------------------------------|
D:-7-9----------7-9------------7-9-------------------10---|
A:-5-7----------5-7------------5-7-----------9---7---8----|
E:-----0-0-0-0-------0-0-0-0-------0-0-0-0---7---5--------|

  chorus
e:------------------------------------------|
B:------------------------------------------|
G:------------------------------------------|
D:--4------------------4---------7----6-----|
A:--2---2----5----4----2----2----5----4-----|
E:------0----3----2---------0---------------|

e:------------------------------------------|
B:------------------------------------------|
G:------------------------------------------|
D:--4----------------4---------7----9-------|
A:--2---2---5---4----2----2----5----7-------|
E:------0---3---2---------0-----------------|

verse
e:------------------------------------------------------------|
B:------------------------------------------------------------|
G:------------------------------------------------------------|
D:--7-9----------7-9-----------7-9-------------------6--7-----|
A:--5-7----------5-7-----------5-7------------9--7---4--5-----|
E:------0-0-0-0-------0-0-0-0--------0-0-0-0--7--5---------0--|
                                             
e:--------------------------------------------------------|
B:--------------------------------------------------------|
G:--------------------------------------------------------|
D:-7-9----------7-9------------7-9-------------------10---|
A:-5-7----------5-7------------5-7-----------9---7---8----|
E:-----0-0-0-0-------0-0-0-0-------0-0-0-0---7---5--------|


e:-------------------------------------------------|
B:-------------------------------------------------|
G:-------------------------------------------------|
D:----------------------------------------9-7-9-10-|
A:----------------------------------------7-5-7-8--|
E:--7-7-7-7--7-7-7-7--7-7-7-7--7-7-7-7-------------|

                                           
e:----------------------------------------------------|
B:----------------------------------------------------|
G:----------------------------------------------------|
D:---------------------------------------9-7--12------|
A:---------------------------------------7-5--10------|
E:-7-7-7-7--7-7-7-7--7-7-7-7--7-7-7-7-----------------|

e:-------------------------------------------------|
B:-------------------------------------------------|
G:-------------------------------------------------|
D:----------------------------------------9-7-9-10-|
A:----------------------------------------7-5-7-8--|
E:--7-7-7-7--7-7-7-7--7-7-7-7--7-7-7-7-------------|

                                           
e:----------------------------------------------------|
B:----------------------------------------------------|
G:----------------------------------------------------|
D:---------------------------------------9-7--12------|
A:---------------------------------------7-5--10------|
E:-7-7-7-7--7-7-7-7--7-7-7-7--7-7-7-7-----------------|

  chorus
e:------------------------------------------|
B:------------------------------------------|
G:------------------------------------------|
D:--4------------------4---------7----6-----|
A:--2---2----5----4----2----2----5----4-----|
E:------0----3----2---------0---------------|

e:------------------------------------------|
B:------------------------------------------|
G:------------------------------------------|
D:--4----------------4---------7----9-------|
A:--2---2---5---4----2----2----5----7-------|
E:------0---3---2---------0-----------------|


solo

Gt1       ----------------------------------
e:-------/-------------------------------------------------------|
B:------/--------------------------------------------------------|
G:-10Bf/--(10)-/-(11)-/-(12)-/-(13)-/-(14)--(14)~~~~~~~~~--14\---|
D:---------------------------------------------------------------|
A:---------------------------------------------------------------|
E:---------------------------------------------------------------|

Gt2
e:-------------------------------------------------------------------------------------|
B:-------------------------------------------------------------------------------------|
G:-333-3-5-3--4-6-4--5-7-5--6-8-6--7-9-7--8-10-8--9-11-9--10-12-10--11-13-11--12-14-12-|
D:-------------------------------------------------------------------------------------|
A:-------------------------------------------------------------------------------------|
E:-------------------------------------------------------------------------------------|


Gt2
e:------------------------------------------------------|
B:------------------------------------------------------|
G:-13-15-13--14-16-14--15-17-15-16-18-16--17-19-17------|
D:--------------------------------------------------14\-|
A:------------------------------------------------------|
E:------------------------------------------------------|

Gt1
e:------------------------------------------|
B:------------------------------------------|
G:------------------------------10Bf--------|
D:------------------------------------------|
A:------------------------------------------|
E:------------------------------------------|

Gt2
e:------------------------------------------------------------------------------|
B:------------------------------------------------------------------------------|
G:---------------------------666-8-6--7-9-7--8-10-8--9-11-9--10-12-10--11-13-11-|
D:-14-14--14\----12--9-9\-------------------------------------------------------|
A:------------------------------------------------------------------------------|
E:------------------------------------------------------------------------------|

Gt2
e:------------------------------------------|
B:------------------------------------------|
G:-12-14-12---------------------------------|
D:-----------14\----------------------------|
A:------------------------------------------|
E:------------------------------------------|

e:--------------------------------------------------------------------------|
B:--------------------------------------------------------------------------|
G:--------------------------------------------------------------------------|
D:-9-----------------5------------------7--------------------5--4-5--4-5-7--|
A:-7-----------------3------------------5--------------------3--2-3--2-3-5--|
E:---0-0-0-0-0-0-0-0---0-0-0-0-0-0-0-0-----0-0-0-0-0-0-0-0------------------|

e:--------------------------------------------------------------------------|
B:--------------------------------------------------------------------------|
G:--------------------------------------------------------------------------|
D:-9-----------------5------------------7--------------------5--4-5--4-5-7--|
A:-7-----------------3------------------5--------------------3--2-3--2-3-5--|
E:---0-0-0-0-0-0-0-0---0-0-0-0-0-0-0-0-----0-0-0-0-0-0-0-0------------------|

e:----------------------------------------------------------|
B:----------------------------------------------------------|
G:----------------------------------------------------------|
D:-9---9-9-9-9---5---5-5-5-5---7---7-7-7-7---5--4-5--4-5-7--|
A:-7---7-7-7-7---3---3-3-3-3---5---5-5-5-5---3--2-3--2-3-5--|
E:----------------------------------------------------------|

e:----------------------------------------------------------|
B:----------------------------------------------------------|
G:----------------------------------------------------------|
D:-9---9-9-9-9---5---5-5-5-5---7---7-7-7-7---5--4-5--4-5-7--|
A:-7---7-7-7-7---3---3-3-3-3---5---5-5-5-5---3--2-3--2-3-5--|
E:----------------------------------------------------------|



e:--------------------|----------------------|-----------------------|
B:--------------------|----------------------|-----------------------|
G:--------------------|----------------------|-----------------------|
D:--5-----------------|-8--------------------|-----------------------|
A:--3-----------------|-6--------------------|-5---------------------|
E:--------------------|----------------------|-3---------------------|


e:--------------------|-----------------------|-----------------------|
B:--------------------|-----------------------|-----------------------|
G:--------------------|-----------------------|-----------------------|
D:--------------------|-5---------------------|-8---------------------|
A:--8------7----------|-3---------------------|-6---------------------|
E:--6------5----------|-----------------------|-----------------------|


e:-----------------------|----------------------------|
B:-----------------------|----------------------------|
G:-----------------------|----------------------------|
D:-----------------------|----------------------7-----|
A:-3---------------------|-7-----5------4-------5-----|
E:-1---------------------|-5-----3------2-------------|


e:--------------------------------------------|-------------|
B:--------------------------------------------|-------------|
G:----------------------------------------9---|-9--9---9-9--|
D:-9---99999999999999999---9--------------9---|-9--9---9-9--|
A:-7---77777777777777777---7--------------7---|-7--7---7-7--|
E:-------------------------0--------------0---|-0--0---0-0--|
            
Submit corrections


        Evil Has No Boundries lessons Hard to play? Try these video lessons and learn fast Evil Has No Boundries lessons
        
↑ Back to top | Tablatures and chords for acoustic guitar and electric guitar, ukulele, drums are parodies/interpretations of the original songs. You may use it for private study, scholarship, research or language learning purposes only