» » »

Less Than Jake - Dukes Of Hazard Tabs

Artists:  A B C D E F G H I J K L M N O P Q R S T U V W X Y Z # 

Dukes Of Hazard Tabs

(ver. 1) Click to play this song!
Less Than Jake
 Rating:
4/5 (4 votes)

 Dukes Of Hazard lessons Tabs too difficult? Try these video lessons and learn fast
 
                
Intro(play softly, and fast, with destortion)
e |--------------------------------------------------------------------------------------|
B|--------------------------------------------------------------------------------------|
G|-----------------------5-5-5-5-5-5-5-5----------------------7-7-7-7-7-7-7-7---|
D|---5-5-5-5-5-5-5-5-5-5-5-5-5-5-5-5--5-5-5-5-5-5-5-5--5-5-5-5-5-5-5-5--5-5-5-5-5-5-5-5-|
A|---5-5-5-5-5-5-5-5-3-3-3-3-3-3-3-3--5-5-5-5-5-5-5-5--5-5-5-5-5-5-5-5--5-5-5-5-5-5-5-5-|
E|---3-3-3-3-3-3-3-3----------------------3-3-3-3-3-3-3-3-----------------------3-3-3-3-3-3-3-3-|
Just the good old boys.....

Verse(play loud, and fast, still with destortion)
e |-----------------------------------------------------------------------------------------------------------|
B|-----------------------------------------------------------------------------------------------------------|
G|-----------------------5-5-5-5-5-5-5-5----------------------7-7-7-7-7-7-7-7-----------------------|
D|---5-5-5-5-5-5-5-5-5-5-5-5-5-5-5-5--5-5-5-5-5-5-5-5--5-5-5-5-5-5-5-5--5-5-5-5-5-5-5-5-|
A|---5-5-5-5-5-5-5-5-3-3-3-3-3-3-3-3--5-5-5-5-5-5-5-5--5-5-5-5-5-5-5-5--5-5-5-5-5-5-5-5-|
E|---3-3-3-3-3-3-3-3----------------------3-3-3-3-3-3-3-3-----------------------3-3-3-3-3-3-3-3-|

Bridge (fast, distortion)
e|----------------------------------------------------------------------|
B|---------------------------------------------------------------------|
G|---7-7-7-7-7-7-7-7-7-7-7-7-7-7-7-7---------------------------|
D|---5-5-5-5-5-5-5-5-5-5-5-5-5-5-5-5---------------------------|
A|---5-5-5-5-5-5-5-5-5-5-5-5-5-5-5-5---------------------------|
E|---------------------------------------------------------------------|

Endeing(fast, distortion)
e |-----------------------------------------------------------------|
B|-----------------------------------------------------------------|
G|-----------------------5-5-5-5-5-5-5-5------7----------------|
D|---5-5-5-5-5-5-5-5-5-5-5-5-5-5-5-5--5---5----5             |
A|---5-5-5-5-5-5-5-5-3-3-3-3-3-3-3-3--5---5----5(let ring)|
E|---3-3-3-3-3-3-3-3----------------------3---------3             |
            
Submit corrections


        Dukes Of Hazard lessons Hard to play? Try these video lessons and learn fast Dukes Of Hazard lessons
        
↑ Back to top | Tablatures and chords for acoustic guitar and electric guitar, ukulele, drums are parodies/interpretations of the original songs. You may use it for private study, scholarship, research or language learning purposes only