» » »

Less Than Jake - Brass For Nervous In The Alley Tabs

Artists:  A B C D E F G H I J K L M N O P Q R S T U V W X Y Z # 

Brass For Nervous In The Alley Tabs

(ver. 1) Click to play this song!
Less Than Jake
 Rating:
4/5 (4 votes)

 Brass For Nervous In The Alley lessons Tabs too difficult? Try these video lessons and learn fast
 
                
This is the guitar tab for the brass played in Nervous In the Alley.

Intro:

e|--------------------------------------------------|
B|--------------------------------------------------|
G|----12-9-7---5-7p5-----5-7/9-7-5-7p5--------------|
D|-10----------------7-----------------7---8-7-5-3~-|
A|--------------------------------------------------|
E|--------------------------------------------------|

e|--------------------------------------------------|
B|--------------------------------------------------|
G|----12-9-7---5-7p5-----5-7/9-7-5-7p5--------------|
D|-10----------------7-----------------7---8-7-5-10-|
A|--------------------------------------------------|
E|--------------------------------------------------|

Main Riff:

e|--------------------------------------------------|
B|--------------------------------------------------|
G|----12-9-7---5-7p5-----5-7/9-7-5-7p5--------------|
D|-10----------------7-----------------7---8-7-5-3~-|
A|--------------------------------------------------|
E|--------------------------------------------------|

e|--------------------------------------------------|
B|--------------------------------------------------|
G|----12-9-7---5-7p5-----5-7/9-7-5-7p5--------------|
D|-10----------------7-----------------7---8-7-5-3~-|
A|--------------------------------------------------|
E|--------------------------------------------------|

e|---------------|
B|---------------|
G|-5-5-5-7-5-9-5-|
D|---------------|
A|---------------|
E|---------------|

Cool. I will finish this later...
            
Submit corrections


        Brass For Nervous In The Alley lessons Hard to play? Try these video lessons and learn fast Brass For Nervous In The Alley lessons
        
↑ Back to top | Tablatures and chords for acoustic guitar and electric guitar, ukulele, drums are parodies/interpretations of the original songs. You may use it for private study, scholarship, research or language learning purposes only