» » »

Lesson Guitar - Fingering Warm Ups Tabs

Artists:  A B C D E F G H I J K L M N O P Q R S T U V W X Y Z # 

Fingering Warm Ups Tabs

(ver. 1) Click to play this song!
Lesson Guitar
 Rating:
2.9/5 (26 votes)

 Fingering Warm Ups  lessons Tabs too difficult? Try these video lessons and learn fast
 
                    2-3-1-3-1-3-2-3-1-3-1-3
D#|-------------------------|
A#|-----3-5-3-------3-5-3---|
F#|-4-5-------5-4-5-------5-|
C#|-------------------------|      #1
G#|-------------------------|
C#|-------------------------|

    1-4-1-2-3-1-2-3
D#|-------------------------|
A#|-------------------------|
F#|-----------5-6-7---------|
C#|-----5-6-7---------------|      #2
G#|-5-8---------------------|
C#|-------------------------|

    1-3-4-1-2-1-4-3
D#|-------------------------|
A#|-------------------------|
F#|-------------------------|
C#|-------------------------|      #3
G#|-------3-4-3-------------|
C#|-3-5-6-------6-5---------|

    2-4-1-3-1-4-2-4-1-3-1-4
D#|-------------------------|
A#|-----1-3-1-------1-3-1---|
F#|-2-4-------4-2-4-------4-|
C#|-------------------------|      #4
G#|-------------------------|
C#|-------------------------|

    1-3-4-1-3-2-1-3
D#|-------------------------|
A#|-----------6-------------|
F#|-------------5-----------|
C#|-------5-7-----7---------|      #5
G#|-5-7-8-------------------|
C#|-------------------------|

    1-3-4-1-3-1-3-4-2-1-3
D#|-------------------------|
A#|-----------------6-------|
F#|-------5-----------5-----|
C#|---7-----7---7-------7---|     #6
G#|-5---8-----5---8---------|
C#|-------------------------|            
Submit corrections


        Fingering Warm Ups  lessons Hard to play? Try these video lessons and learn fast Fingering Warm Ups  lessons
        
↑ Back to top | Tablatures and chords for acoustic guitar and electric guitar, ukulele, drums are parodies/interpretations of the original songs. You may use it for private study, scholarship, research or language learning purposes only