» » »

Lesson Guitar - Bluegrass Beginner Tag Licks Tabs

Artists:  A B C D E F G H I J K L M N O P Q R S T U V W X Y Z # 

Bluegrass Beginner Tag Licks Tabs

(ver. 1) Click to play this song!
Lesson Guitar
 Rating:
1.7/5 (30 votes)

 Bluegrass Beginner Tag Licks  lessons Tabs too difficult? Try these video lessons and learn fast
 
                Tuning:

e|--0-2/3-0-----0------------------------------------------------------------|
B|----------3p0---3p0--------------------------------------------------------|
G|--------------------3/2-0-----0-------------------------0------------------|
D|--------------------------2p0---2p0--------------0h2p0---------------------|
A|------------------------------------1p0----0-1h2---------------------------|
E|----------------------------------------3----------------------------------|

e|--0-2-3-5-3-0---2-0-2-3-0---------------0----------------------------------|
B|--------------3-----------3-0----------------------------------------------|
G|------------------------------3-2-0-2-4---4-3-2-0---0-------2-0------------|
D|--------------------------------------------------2---0-2-4----------------|
A|---------------------------------------------------------------------------|
E|---------------------------------------------------------------------------|

e|--1h3-------1--------------------------------------------------------------|
B|------3-2h3---1h3-2p1---1--------------------------------------------------|
G|----------------------3---3-3/4-0-----0-------------0----------------------|
D|----------------------------------3p0---------0h2p0------------------------|
A|----------------------------------------0-1/2------------------------------|
E|---------------------------------------------------------------------------|

e|--2/3-3-3-----6-3----------------------------------------------------------|
B|----------6-3-----6-3------------------------------------------------------|
G|----------------------5-3---5---3-4-0---0-----0-------------0--------------|
D|--------------------------5---5-------3---3p0---------0h2p0----------------|
A|------------------------------------------------0-1/2----------------------|
E|---------------------------------------------------------------------------|

e|------3--------------------------------------------------------------------|
B|--3h5---4p3---3------------------------------------------------------------|
G|------------5---5p3---5---3/4-0--------------------------------------------|
D|--------------------5---5--------------------------------------------------|
A|---------------------------------------------------------------------------|
E|---------------------------------------------------------------------------|

e|--6-3-----3----------------------------------------------------------------|
B|------6p3---6p3------------------------------------------------------------|
G|----------------6p5-0-3/4-0------------------------------------------------|
D|---------------------------------------------------------------------------|
A|---------------------------------------------------------------------------|
E|---------------------------------------------------------------------------|

e|---6/7-3-------------------------------------------------------------------|
B|---------6p3-6p3-----------------------------------------------------------|
G|-----------------5-3/4-0-3p0-----------------------------------------------|
D|---------------------------------------------------------------------------|
A|---------------------------------------------------------------------------|
E|---------------------------------------------------------------------------|

e|---------------------------------------------------------------------------|
B|------0--------------------------------------------------------------------|
G|--0h2---2p0---2---0--------------------------------------------------------|
D|------------2---2---2p0---2---0-----0--------------------------------------|
A|------------------------2---2---1p0---2------------------------------------|
E|---------------------------------------------------------------------------|

e|---------------------------------------------------------------------------|
B|--------8p7---7-------6p5---5-------4p3---3--------------------------------|
G|------7-----9---9/7-5-----7---7/5-3-----5---5/3---5-3-3/4-0----------------|
D|--7/9-------------------------------------------5--------------------------|
A|---------------------------------------------------------------------------|
E|---------------------------------------------------------------------------|
       gmaj              cmaj                  dmaj
e|------------------------------------------------------------------------------------|
B|--------------------------------------1---------------------------------------------|
G|------------------0-------------0-2p0----------------0-1/2--------------------------|
D|------------0h2p0---------0-1h2----------------0-3h4-------0------------------------|
A|------0-1/2-----------0h3------------------3h4--------------------------------------|
E|--0h3-------------------------------------------------------------------------------|
       gmaj                         cmaj                   dmaj
e|------------------------------------------------------------------------------------------------------|
B|------------------3-------------------------------1---1-----------------------------------------------|
G|---------------/4--2h3p2p0------------------0-2p0-3p0---------------0-2p0-4-5-4p0---0---0---0---0-----|
D|---------0-2p0-------------2p0--------0-1h2------------------0-3h4---------------2p0-2p0-3p0-2p0------|
A|---0-1h2--------------------------0h3--------------------3h4------------------------------------------|
E|0h3---------------------------------------------------------------------------------------------------|
       gmaj                      cmaj                 dmaj
e|---------------------------------------------------------------------------------10-------------------|
B|---------------------------------------------------------------------8-10p8--10b(12)10-8-10-8-10-6-7-8|
G|------------0-3p0--0--------------------------5-5--------------7-9/10------10-------------------------|
D|---0---0-2h3------3---3p0-------------5----5-7--------0---0-7h9---------------------------------------|
A|4h5-4h5------------------4-3---3-5/7---6h7---------8h9-8h9--------------------------------------------|
E|------------------------------------------------------------------------------------------------------|            
Submit corrections


        Bluegrass Beginner Tag Licks  lessons Hard to play? Try these video lessons and learn fast Bluegrass Beginner Tag Licks  lessons
        
↑ Back to top | Tablatures and chords for acoustic guitar and electric guitar, ukulele, drums are parodies/interpretations of the original songs. You may use it for private study, scholarship, research or language learning purposes only