» » »

Lesley Roy - I'm Gone I'm Going Tabs

Artists:  A B C D E F G H I J K L M N O P Q R S T U V W X Y Z # 

I'm Gone I'm Going Tabs

(ver. 2) Click to play this song!
Lesley Roy
 Rating:
3.7/5 (6 votes)

 I'm Gone I'm Going lessons Tabs too difficult? Try these video lessons and learn fast
 
                -Read info at the bottom first-

Intro: play 2x                     
e|------------------------------(-------1-1-1-1-1--------1-1-1-1-1-)-:|
B|-2-1--------------------------(-2-2-2------------2-2-2-----------)-:|
G|-----3---1-1--1-1-3-1----------------------------------------------:|   
D|-----------------------3-3-3---------------------------------------:|
A|-------------------------------------------------------------------:|
E|-------------------------------------------------------------------:|

Verse:  plays until chorus
e|-------------1--------------------:|
B|-2-2-1---2-2----2-2-1---2-2-------:|
G|----------------------------1-----:|   
D|----------------------------------:|
A|----------------------------------:|
E|----------------------------------:|

 
-another guitar comes in with this part but you can fit it in while playing-
''cause life is way to short''               ''and i can't wait no more'' 
e|------------------------------------------------------------------------------:|
B|--------------------------14-13-----14-13----------------------------14-13----:|
G|--------------------------------13--------13-------------------------------13-:|
D|------------------------------------------------------------------------------:|
A|------------------------------------------------------------------------------:|
E|------------------------------------------------------------------------------:|  


Chorus: 
e|----------------------------------------:|
B|----------------------------------------:|
G|--55555555-77777777-3333333333333333----:|   
D|--66666666-88888888-4444444444444444----:|
A|--66666666-88888888-4444444444444444----:|
E|--44444444-66666666-2222222222222222----:|

e|----------------------------------------:|
B|----------------------------------------:|
G|--55555555-77777777-3333333333333333----:|   
D|--66666666-88888888-4444444444444444----:|
A|--66666666-88888888-4444444444444444----:|
E|--44444444-66666666-2222222222222222----:|

e|----------------------------------------:|
B|----------------------------------------:|
G|--5-5-5-5--7-7-7-7--3-3-3-3--3-3-3-3----:|   
D|--6-6-6-6--8-8-8-8--4-4-4-4--4-4-4-4----:|
A|--6-6-6-6--8-8-8-8--4-4-4-4--4-4-4-4----:|
E|--4-4-4-4--6-6-6-6--2-2-2-2--2-2-2-2----:|

e|----------------------------------------:|
B|----------------------------------------:|
G|--55555555-77777777-3333333333333333----:|   
D|--66666666-88888888-4444444444444444----:|
A|--66666666-88888888-4444444444444444----:|
E|--44444444-66666666-2222222222222222----:|


-Play Intro
-Play Verse
-Play Chorus

Bridge/breakdown:
e|----------------------------------------------------------------------:|
B|----------------------------------------------------------------------:|
G|----------------------------------------------------------------------:|   
D|----------------------------------------------------4-4-4-4-4-4-4-4-4-:|
A|----------------------------------------------------4-4-4-4-4-4-4-4-4-:|
E|--444444446666666622222222222222224444444466666666--2-2-2-2-2-2-2-2-2-:|


Guitar Solo: play 2x
e|-------------------------------------:|
B|--2-1--------------------------------:|
G|------1----1---1-3-------------------:|   
D|---------3---3-----------------------:|
A|-------------------------------------:|
E|-------------------------------------:| 

Chorus: 
e|----------------------------------------:|
B|----------------------------------------:|
G|--55555555-77777777-3333333333333333----:|   
D|--66666666-88888888-4444444444444444----:|
A|--66666666-88888888-4444444444444444----:|
E|--44444444-66666666-2222222222222222----:|

e|----------------------------------------:|
B|----------------------------------------:|
G|--55555555-77777777-3333333333333333----:|   
D|--66666666-88888888-4444444444444444----:|
A|--66666666-88888888-4444444444444444----:|
E|--44444444-66666666-2222222222222222----:|

e|----------------------------------------:|
B|----------------------------------------:|
G|--5-5-5-5--7-7-7-7--3-3-3-3--3-3-3-3----:|   
D|--6-6-6-6--8-8-8-8--4-4-4-4--4-4-4-4----:|
A|--6-6-6-6--8-8-8-8--4-4-4-4--4-4-4-4----:|
E|--4-4-4-4--6-6-6-6--2-2-2-2--2-2-2-2----:|

e|----------------------------------------:|
B|----------------------------------------:|
G|--55555555-77777777-3333333333333333----:|   
D|--66666666-88888888-4444444444444444----:|
A|--66666666-88888888-4444444444444444----:|
E|--44444444-66666666-2222222222222222----:|

Ending/Outro: play 2x
e|------------------------------(-------1-1-1-1-1--------1-1-1-1-1-)-:|
B|-2-1--------------------------(-2-2-2------------2-2-2-----------)-:|
G|-----3---1-1--1-1-3-1----------------------------------------------:|   
D|-----------------------3-3-3---------------------------------------:|
A|-------------------------------------------------------------------:|
E|-------------------------------------------------------------------:|


INFO FOR TAB:

( ) = HOLD STRINGS AT THE SAME TIME WHILE PLAYING THE SAPERATE NOTES

There are few parts in the song that i could not figure out because
its played so low.But i did figure out the main parts needed to play the song.Thanks (:

-The Guitar Solo is actually played on octaves.
 Try this and see if you like it better than the solo up top.

Guitar Solo: play 2x
e|-------------------------------:|
B|--14--13--9---6-9--6-9-11------:|
G|-- x---x--x---x-x--x-x-x-------:|   
D|--11--10--6---3-6--3-6-8-------:|
A|-------------------------------:|
E|-------------------------------:| 

PLEASE COMMENT AND RATE.
            
Submit corrections


        I'm Gone I'm Going lessons Hard to play? Try these video lessons and learn fast I'm Gone I'm Going lessons
        
↑ Back to top | Tablatures and chords for acoustic guitar and electric guitar, ukulele, drums are parodies/interpretations of the original songs. You may use it for private study, scholarship, research or language learning purposes only