» » »

Leonard Cohen - Hallelujah Tabs

Artists:  A B C D E F G H I J K L M N O P Q R S T U V W X Y Z # 

Hallelujah Tabs

(ver. 2) Click to play this song!
Leonard Cohen
 Rating:
4.3/5 (13 votes)

 Hallelujah lessons Tabs too difficult? Try these video lessons and learn fast
 
                [Intro/Refrain]

    G             Em           G             Em
e|---------------------------------------------------|
B|---------------------------------------------------|
G|--------0-------------0------------0-------------0-|
D|------0-------------4------------0-------------4---|
A|----2-------------2------------2-------------2-----|
E|--3--------3p2--0--------0h2-3--------3p2--0-------|


[Verse]
          G             Em             G              Em
e|----------------------0---0-0---|-------------------0---0-0------|
B|------0-3-----3---3-------------|--0-3------3---3--------------3-|
G|------------0---------------0--0|---------0---------------0--0---|
D|----------0-----0-------2-------|-------0-----0-------2----------|
A|----------------------2---------|-------------------2------------|
E|--0h2---3-----3-----------------|----3------3--------------------|
 
    C             D                 G              D  
e|--0---0-0-------0--------------|-----------------------2-|
B|-------------1------3------3-1-|--3-3----------------3---|
G|--------0--0------2---2--------|----------0--------2-----|
D|----2-----------0-------0------|--------0---0----0-------|
A|--3----------------------------|------2-------0----------|
E|-------------------------------|----3--------------------|

        G            C      D        Em            C      
e|-------------------0------2-----|--3-3-3---------3------5--------|
B|--0h1-3-----3-----------------3-|---------0--------------------3-|
G|----------------0------0----2---|-----------0--------0------0----|
D|----------0---0------2----0-----|-------------2----2------4------|
A|--------2----------3------------|--2-------------3---------------|
E|------3-----3-------------------|-----------------------5--------|

    D              B7                Em
e|--5------5---5---7-----7----------^x-(3)-|
B|------3--------------------10-10--^8-(0)-|
G|----2------2---------8---8--------^8-(0)-|
D|--0----------------9--------------^9-(2)-|
A|-----------------9----------------^7-(2)-|
E|----------------------------------^x-(0)-|


[Chorus]
        C                          Em
e|------0-----0-----------0-----|---------------------------|
B|--0-3---------1-------------3-|--0-----0------------0---3-|
G|----------0-----0-----0---0---|------0-----0-----0--------|
D|--------2-----------2-----2---|----4-----4-----4----------|
A|------3-----------3-----------|--2------------------------|
E|------------------------------|--------0-----0--------0---|

    C                          G            D 
e|--0-----0-----------0-----|------------------------------|
B|----------1-------------3-|--0-------1p0-----------------|
G|------0-----0-----0---0---|--------0------2-----0------0-|
D|----2-----------2-----2---|------0------------0-----4----|
A|--3-----------3-----------|----2------------0-----0------|
E|--------------------------|--3------------2------------3-| 

Refrain then repeat

[Outro]
        C                          Em
e|------0-----0-----------0-----|---------------------------|
B|--0-3---------1-------------3-|--0-----0------------0---3-|
G|----------0-----0-----0---0---|------0-----0-----0--------|
D|--------2-----------2-----2---|----4-----4-----4----------|
A|------3-----------3-----------|--2------------------------|
E|------------------------------|--------0-----0--------0---|

    C                          G            D                         G 
e|--0-----0-----------0---2-|--3------------2-----2------3-----------^3-|
B|----------1---------------|-------------------3---3----------------^0-|
G|------0-----0-----0---0---|--------0--------2-------2--------0-----^0-|
D|----2-----------2---------|------0---0----0----------------0---0---^0-|
A|--3-----------3-----------|----2-------0-----------------2-------2-^2-|
E|--------------------------|--3-------------------------3-----------^3-| 

            
Submit corrections


        Hallelujah lessons Hard to play? Try these video lessons and learn fast Hallelujah lessons
        
↑ Back to top | Tablatures and chords for acoustic guitar and electric guitar, ukulele, drums are parodies/interpretations of the original songs. You may use it for private study, scholarship, research or language learning purposes only