» » »

Leonard Cohen - Hallelujah Tabs

Artists:  A B C D E F G H I J K L M N O P Q R S T U V W X Y Z # 

Hallelujah Tabs

(ver. 1) Click to play this song!
Leonard Cohen
 Rating:
4.3/5 (29 votes)

 Hallelujah lessons Tabs too difficult? Try these video lessons and learn fast
 
                [Intro]
    C             Am            C             Am
e|-------------|-------------|-------------|-------------|
B|-------1-----|-------1-----|-------1-----|-------1-----|
G|-----0---0---|-----2---2---|-----0---0---|-----2---2---|
D|---2---------|---2---------|---2---------|---2---------|
A|-3---------2-|-0---------2-|-3---------2-|-0---------2-|
E|-------------|-------------|-------------|-------------|


[Verse]
    C             Am            C             Am          
e|-------------|-------------|-------------|-------------|
B|-------1-----|-------1-----|-------1-----|-------1-----|
G|-----0---0---|-----2---2---|-----0---0---|-----2---2---|
D|---2---------|---2---------|---2---------|---2-------2-|
A|-3---------2-|-0---------2-|-3---------2-|-0-----------|
E|-------------|-------------|-------------|-------------|
   F             G             C             G
e|-------------|-------------|-------------|-------------|
B|-------1-----|-------0-----|-------1-----|-------0-----|
G|-----2---2---|-----0---0---|-----0---0---|-----0---0---|
D|---3-------3-|---0-------0-|---2-------2-|---0-------0-|
A|-3-----------|-2-----------|-3-----------|-------------|
E|-------------|-------------|-------------|-3-----------|
    C             F     G       Am            F            
e|-------------|-------------|-------------|-------------|
B|-------1-----|-----------0-|-------1-----|-------1-----|
G|-----0---0---|-----2---0---|-----2---2---|-----2---2---|
D|---2-------2-|---3---0-----|---2-------2-|---3-------3-|
A|-3-----------|-3-----------|-0-----------|-3-----------|
E|-------------|-------------|-------------|-------------|
   G             E7            Am
e|-------------|-------------|-------------|-------------|
B|-------0-----|-------0-----|-------1-----|-------1-----|
G|-----0---0---|-----1---1---|-----2---2---|-----2---2---|
D|---0-------0-|---0-------0-|---2-------2-|---2-------2-|
A|-2-----------|-2-----------|-0-----------|-0-----------|
E|-------------|-------------|-------------|-------------|


[Chorus]
    F                           Am
e|-------------|-------------|-------------|-------------|
B|-------1-----|-------1-----|-------1-----|-------1-----|
G|-----2---2---|-----2---2---|-----2---2---|-----2---2---|
D|---3-------3-|---3-------3-|---2-------2-|---2-------2-|
A|-3-----------|-3-----------|-0-----------|-0-----------|
E|-------------|-------------|-------------|-------------|
    F                           C             G             C
e|-------------|-------------|-------------|-------------|-------------|-------------|
B|-------1-----|-------1-----|-------1-----|-------0-----|-------1-----|-------1-----|
G|-----2---2---|-----2---2---|-----0---0---|-----0---0---|-----0---0---|-----0---0---|
D|---3-------3-|---3-------3-|---2-------2-|---0-------0-|---2-------2-|---2-------2-|
A|-3-----------|-3-----------|-3-----------|-2-----------|-3-----------|-3-----------|
E|-------------|-------------|-------------|-------------|-------------|-------------|


[Outro]
    F                           Am
e|-------------|-------------|-------------|-------------|
B|-------1-----|-------------|-------1-----|-------------|
G|-----2-------|-------------|-----2-------|-------------|
D|---3---------|-------------|---2---------|-------------|
A|-3-----------|-------------|-0-----------|-------------|
E|-------------|-------------|-------------|-------------|
    F                           C             G             C
e|-------------|-------------|-------------|-------------|-------------|-0-----h3---------/8--|
B|-------1-----|-------------|-------1-----|-------0-----|-------1---1-|----------------------|
G|-----2-------|-------------|-----0---0---|-----0---0---|-----0---0---|----------------------|
D|---3---------|-------------|---2-------2-|---0-------0-|---2---------|----------------------|
A|-3-----------|-------------|-3-----------|-2-----------|-3-----------|----------------------|
E|-------------|-------------|-------------|-------------|-------------|----------------------|            
Submit corrections


        Hallelujah lessons Hard to play? Try these video lessons and learn fast Hallelujah lessons
        
↑ Back to top | Tablatures and chords for acoustic guitar and electric guitar, ukulele, drums are parodies/interpretations of the original songs. You may use it for private study, scholarship, research or language learning purposes only