» » »

Sylvestre Matuschka Tabs - Lard

Artists:  A B C D E F G H I J K L M N O P Q R S T U V W X Y Z # 

Sylvestre Matuschka Tabs

(ver. 1) Click to play this song!
4/5 (4 votes)
    Sylvestre Matuschka lessons Tabs too difficult? Try these video lessons and learn fast

Sylvestre Matuschka     by Lard
                        from the album "The Last Temptation of Reid"
                        words and music by Al Jourgensen, Paul Barker,
                                Jeff Ward, and Jello Biafra

Main Riff
                  pm...               pm...
E |--------------------------------------------|
B |--------------------------------------------|
G |---9-9-9\--------------9-9-9\---------------|
D |---9-9-9\---2---4-5----9-9-9\---2---5-4-----|
A |---7-7-7\---2---4-5----7-7-7\---2---5-4-----|
E |------------0---2-3-------------0---3-2-----|

Riff 2
E |--------------------------------------|
B |--------------------------------------|
G |----------9-9-9-9-----------5-5-5-5---|
D |---8-8-8--9-9-9-9----5-5-5--5-5-5-5---|
A |---8-8-8--7-7-7-7----5-5-5--3-3-3-3---|
E |---6-6-6-------------3-3-3------------|

Riff 3
E |------------------------------------------------------|
B |------------------------------------------------------|
G |------------------------------------------------------|
D |------------------------------------------------------|
A |------------------------------------------------------|
E |-00000000000000000000000000-66666666666-3333333333----|
Submit corrections

↑ Back to top | Tablatures and chords for acoustic guitar and electric guitar, ukulele, drums are parodies/interpretations of the original songs. You may use it for private study, scholarship, research or language learning purposes only