Home » L » Lana Del Rey »

Lana Del Rey - God Knows I Tried Tabs

Artists:  A B C D E F G H I J K L M N O P Q R S T U V W X Y Z # 

God Knows I Tried Tabs

(ver. 2) Click to play this song!
Lana Del Rey
INTRO:  ~humming~
e|-----------------------------------------------------------|
B|---------1--------------2-------------2--------------------|
G|-----1--------------1-------------3-----------------3------|
D|---3--3-----------3--3----------3--3------------2----------|
A|----------------------------------------------3--3---------|
E|-----------------------------------------------------------|

VERSE 1:
(2X)
Sometimes I wake up, in the morning, to red, blue and yellow skies. |
It's so crazy, I could drink it, like Tequila sunrise.
e|-------------------------------|
B|---------1--------------2------|
G|-----1--------------1----------|
D|---3--3-----------3--3---------|
A|-------------------------------|
E|-------------------------------|

Put on that Hotel California, dance around like I'm insane, I feel free when, I see no one, and nobody knows
my name
e|-----------------------------------------------------------|
B|---------1--------------4-------------2-------2--------1---|
G|-----1--------------3--------------------------------------|
D|---3--3-----------1--1------------3--------3--------2------|
A|--------------------------------4--4-----1--1-----3--3-----|
E|-----------------------------------------------------------|

CHORUS:
(2X)
God knows I lived, God knows I died, God knows I begged, Begged, borrowed and cried. |
God knows I loved, God knows I lied, God knows I lost, But God gave me life.
e|-----------------------------------------------------------|
B|---------1--------------1-----------4---4-------------1----|
G|-----1--------------1-------------3--3------------1--------|
D|---3--3-----------1--1--------------------------3--3-------|
A|-----------------------------------------------------------|
E|-----------------------------------------------------------|

God knows I tried, God knows I tried, God knows I tried, God knows I tried.
e|-----------------------------------------------------------|
B|------------------------1----------------------------------|
G|---------3----------1-----------------3--------------------|
D|-----2------------3--3------------2---------------3*-------|
A|---3--3-------------------------3--3-----------------------|
E|-----------------------------------------------------------|

VERSE 2:
(2X)
Sometimes I wake up, in the morning, to red, blue and yellow lies. |
On Monday, they destroyed me, but by Friday I'm revived.
e|-------------------------------|
B|---------1--------------2------|
G|-----1--------------1----------|
D|---3--3-----------3--3---------|
A|-------------------------------|
E|-------------------------------|

Put on that Hotel California, wear my blinders in the rain, I've got nothing much to live for, ever since I
found my fame.
e|-----------------------------------------------------------|
B|---------1--------------4-------------2-------2--------1---|
G|-----1--------------3--------------------------------------|
D|---3--3-----------1--1------------3--------3--------2------|
A|--------------------------------4--4-----1--1-----3--3-----|
E|-----------------------------------------------------------|

CHORUS:
(2X)
God knows I lived, God knows I died, God knows I begged, Begged, borrowed and cried. |** [Riff] **
God knows I loved, God knows I lied, God knows I lost, But God gave me life.
e|-----------------------------------------------------------|
B|---------1--------------1-----------4---4-------------1----|
G|-----1--------------1-------------3--3------------1--------|
D|---3--3-----------1--1--------------------------3--3-------|
A|-----------------------------------------------------------|
E|-----------------------------------------------------------|

God knows I tried, God knows I tried, God knows I tried, God knows I tried.
e|-----------------------------------------------------------|
B|------------------------1-----------------------------1----|
G|---------3----------1-----------------3-----------1--------|
D|-----2------------3--3------------2-------------3--3-------|
A|---3--3-------------------------3--3-----------------------|
E|-----------------------------------------------------------|

INTERLUDE:
(2X-Same lyrics)
So let there be light, let there be light, light up my life, light up my life.
e|-----------------------------------------------------------|
B|---------2--------------1-------------2--------------1-----|
G|-----1--------------1-------------1--------------1---------|
D|---3--3-----------1--1----------3--3-----------3--3--------|
A|-----------------------------------------------------------|
E|-----------------------------------------------------------|

CHORUS:
God knows I tried, God knows I tried, God knows I tried, God knows I tried.
e|-----------------------------------------------------------|
B|------------------------1-----------------------------1----|
G|---------3----------1-----------------3-----------1--------|
D|-----2------------3--3------------2-------------3--3-------|
A|---3--3-------------------------3--3-----------------------|
E|-----------------------------------------------------------|

God knows I tried, God knows I tried, God knows I tried, God knows... I... tried...
e|--------------------------------------------------1--------|
B|---------2--------------1-------------2-----------1--------|
G|-----1--------------1-------------1---------------1--------|
D|---3--3-----------1--1----------3--3--------------3--------|
A|--------------------------------------------------X--------|
E|--------------------------------------------------X--------|

            
Submit corrections

↑ Back to top | Tablatures and chords for acoustic guitar and electric guitar, ukulele, drums are parodies/interpretations of the original songs. You may use it for private study, scholarship, research or language learning purposes only