Home » L » Lamb Of God »

Lamb Of God - Grace Bass

Artists:  A B C D E F G H I J K L M N O P Q R S T U V W X Y Z # 

Grace Bass

(ver. 1) Click to play this song!
Lamb Of God
Lamb Of God
Grace
Wrath
Drop d down half step (C#)

with pick and distrotion
No Bass INtro 1

Intro 2/Chorus x2
|-----------------------------------------------------------------|
|-----------------------------------------------------------------|
|-------------------------------------------------6---------------|
|-0-1-4-5-7-5-4-5-8-7-5-4-7-5-4-1-0-1-4-5-7-5-4-5---8-7-5-7-5-4-1-|

|-----------------------------------------------------------------|
|-----------------------------------------------------------------|
|-----------------------------------------------------------------|
|-0-1-4-5-7-5-4-5-8-7-5-4-7-5-4-1-0-1-4-5-7-5-4-5-3h5-3h6-3h5-3h6-|

|---------------------------------|
|---------------------------------|
|---------------------------------|
|-3h5-3h6-3h5-3h6-3h5-3h6-3h5-3h6-|

Verse x2
|-----------------------------------------------|
|-----------------------------------------------|
|-------------------------------------------0-3-|
|-000000000000-3-5-3-6-00000000-0-3-1-0-5-3-----|

|-------------------------------------------------|
|-------------------------------------------------|
|-------------------------------6t-5t-3t-6t-5t-3t-|
|-000000000000-3-5-3-6-00000000-------------------|

Pre-Chorus
|----------------------------------------------------------|
|----------------------------------------------------------|
|----------------------------------------------------------|
|-8888888888888888-8-5-5-5-5--1---00-10-0-13-12-8757-10878-|

|---------------------------------------------------------|
|---------------------------------------------------------|
|---------------------------------------------------------|
|-00-10-0-13-0-12-0-87657654-8888888888888888-8-5-5-5-5-1-|

play chorus/intro x2
play verse x2

play pre-chorus x2, but second times theres a variation:
|----------------------------------------------------------------------|
|----------------------------------------------------------------------|
|----------------------------------------------------33333333333333333-|
|-8888888888888888-8-55555555555-1111-000000000000000------------------|

|----------------------------------|
|----------------------------------|
|----------------------------------|
|-8888888888888888-8-55555555555-1-|

play chorus/intro x2

Breakdown right after he says this is where the end begins (follow guitar too hard to 
exact rythm)
|---------------------------------|
|---------------------------------|
|---------------------------------|x4
|-0-0-0-0-0-0-0-0-0-0-0-0-0-0-0-0-|

THE END BEGINS!!!!!!!!!! (pretty much same thing as above but end of open ds
|---------------------------------|
|---------------------------------|
|---------------------------------|
|-0-0-0-0-0-0-0-0-0-0-0-0-0-0-0-0-|

Solo
|--------------------------------------------------------------------|
|--------------------------------------------------------------------|
|----------------------------------------------------333333333333333-|
|-0-88888888888888-8-5555555555-1111-0000000000000000----------------|

|--------------------------------------------------------------|
|--------------------------------------------------------------|
|--------------------------------------------------------------|
|-888888888888888-8-55555555555-1111-00000000000000-7777777777-|

|---------------------------------------------------------------------|
|---------------------------------------------------------------------|
|----------------------------------------------------3333333333333333-|
|-888888888888888-8-55555555555-1111-000000000000000------------------|

|---------------------------------|
|---------------------------------|
|---------------------------------|
|-888888888888888-8-55555555555-1~|

PLay Chorus/intro x2

Outro (This is where the end begins!)
|---------------------------------|
|---------------------------------|
|---------------------------------|x4
|-0~~~~~~~~~~~~~~~~~~~~~~~~~~0-0--|

|-------------------------------------------------------|
|-------------------------------------------------------|
|-------------------------------------------------------|x4
|-12\-0000-000-1-00-0-0-3h5-3h6-3h5-3h6-3h5-3h6-3h5-3h6-|

End of song. Next is The Calamity by trivium, Then throes of perdition, then some 
;)
            
Submit corrections

↑ Back to top | Tablatures and chords for acoustic guitar and electric guitar, ukulele, drums are parodies/interpretations of the original songs. You may use it for private study, scholarship, research or language learning purposes only