» » »

Lamb Of God - Culling Tabs

Artists:  A B C D E F G H I J K L M N O P Q R S T U V W X Y Z # 

Culling Tabs

(ver. 1) Click to play this song!
Lamb Of God
 Rating:
4.3/5 (27 votes)
                [Intro]
[Both guitars)
D|---------------------------------------------------------------------------|
A|---------------------------------------------------------------------------|
F|---------------------------------------------------------------------------|
C|---------------------------------------------------------------------------|
G|---------------------------------------------------------------------------|
D|-1-0-0-3-0-0-5h6-0-5h6-0-3p0-0-0---1-0-0-3-0-0-5h6-0-5h6-0-3p0-0-0---------| x2 Before solo
PM   . .   . .     .     .     . .     . .   . .     .     .     . .

[Intro Solo]
(Rhythm)
e|---------------------------------------------------------------------------|
B|---------------------------------------------------------------------------|
G|---------------------------------------------------------------------------|
D|---------------------------------------------------------------------------|
A|---------------------------------------------------------------------------|
D|-1-0-0-3-0-0-5h6-0-5h6-0-3p0-0-0---1-0-0-3-0-0-5h6-0-5h6-0-3p0-0-0---------| x2 During solo
PM   . .   . .     .     .     . .     . .   . .     .     .     . .

[Lead]
e|-------------------------------------------|
B|---6~---5~--5h6p5---5-----------6p5--------|
G|------------------7---7-5---5-7-----7*-----|
D|-------------------------------------------|
A|-------------------------------------------|
D|-------------------------------------------|

e|----------------------------------------------------------------------10--------|
B|--//-10--13P10----10P13P10----10p13p10----10h13p10----10h13--13b15~~~-13b15-*---|
G|--//-13--------13----------13----------13----------13---------------------------|
D|--------------------------------------------------------------------------------|
A|--------------------------------------------------------------------------------|
D|--------------------------------------------------------------------------------|

(Try to bend the 13 on the G string a little each time)
(I found this part hard to carch but ... best attempt)


[Verse]
[Both Guitars]
e|---------------------------------------------------------------------------|
B|---------------------------------------------------------------------------|
G|---------------------------------------------------------------------------|
D|---------------------------------------------------------------------------|
A|---------------------------------------------------------------------------|
D|-1-0-0-3-0-0-5h6-0-5h6-0-3p0-0-0---1-0-0-3-0-0-5h6-0-5h6-0-3p0-0-0---------| x4
PM   . .   . .     .     .     . .     . .   . .     .     .     . .


[Pre Chorus]
[Both guitars]
D|-----------------------------------------------------------------------------|
A|-----------------------------------------------------------------------------|
F|-----------------------------------------------------------------------------|
C|-----------------------------------------------------------------------------|
G|--------------------------------------3--------------------------------------|
D|--\\-5~--0-0-0--3p-0-5p-0-6p-0-5p-0-0-3p0--0-0-0-0-0-0--0000-0-0-0-0-0-0-----|
PM         . . .                      .      . . . . . .  .... . . . . . .

D|---------------------------------------------------------------------------|
A|---------------------------------------------------------------------------|
F|---------------------------------------------------------------------------|
C|---------------------------------------------------------------------------|
G|--------------------------------------3------------------------------------|
D|--\\-5~--0-0-0--3p-0-5p-0-6p-0-5p-0-0-3p0--0-0-0-0-0-0-0-0-0-0-0-0-0-0-----|
PM         . . .                      .      . . . . . . . . . . . . . .

[Guitar 1]
D|-----------------------------------------------------------------------------|
A|-----------------------------------------------------------------------------|
F|-----------------------------------------------------------------------------|
C|-----------------------------------------------------------------------------|
G|--------------------------------------3--------------------------------------|
D|--\\-5~--0-0-0--3p-0-5p-0-6p-0-5p-0-0-3p0--0-0-0-0-0-0--0000-0-0-0-0-0-0-----|
PM         . . .                      .      . . . . . .  .... . . . . . .

D|---------------------------------------------------------------------------|
A|---------------------------------------------------------------------------|
F|---------------------------------------------------------------------------|
C|---------------------------------------------------------------------------|
G|--------------------------------------3-----------------7p6-6-6--7p6-6-6---|
D|--\\-5~--0-0-0--3p-0-5p-0-6p-0-5p-0-0-3p0--0-0-0-0-0-0--7p6-6-6--7p6-6-6---|
PM         . . .                      .      . . . . . .

[Guitar 2]
D|------------------------------------------------------------------------------|
A|------------------------------------------------------------------------------|
F|------------------------------------------------------------------------------|
C|------------------------------------------------------------------------------|
G|---------------------------------------3--------------------------------------|
D|--\\-9~--0-0-0--7p-0-9p-0-10p-0-5p-0-0-3p0--0-0-0-0-0-0--0000-0-0-0-0-0-0-----|
PM         . . .                       .      . . . . . .  .... . . . . . .

D|----------------------------------------------------------------------------|
A|----------------------------------------------------------------------------|
F|----------------------------------------------------------------------------|
C|----------------------------------------------------------------------------|
G|---------------------------------------3-----------------7p6-6-6--7p6-6-6---|
D|--\\-9~--0-0-0--7p-0-9p-0-10p-0-5p-0-0-3p0--0-0-0-0-0-0--7p6-6-6--7p6-6-6---|
PM         . . .                       .      . . . . . .


[Chorus]
[Guitar 1]
D|-------------------------------------------------------------------------------------------|
A|-------------------------------------------------------------------------------------------|
F|--7777777777777777-------------------------------------------------------------------------|
C|--7777777777777777--666666666666-----------------------------------------------------------|
G|--5555555555555555--666666666666-------------------------------------------------5h8p5-----|
D|--------------------666666666666--3-0-3-6*b--3-55555555--3-0-3-6--3-5555--0h3h5h6-------6--|

D|-------------------------------------------------------------------------------------------|
A|-------------------------------------------------------------------------------------------|
F|--7777777777777777-------------------------------------------------------------------------|
C|--7777777777777777--666666666666-----------------------------------------------------------|
G|--5555555555555555--666666666666-----------------------------------------------------------|
D|--------------------666666666666--3-0-3-6*--3-55555555--3-0-3-6--3-5555--//-15^^^----------|

[Guitar 2]
D|-- 16 times each ------------------------------------------------------------|
A|-----------------------------------------------------------------------------|
F|---14--------8---------------------------------------------------------------|
C|----x--------x---------------------------------------------------------------|
G|---12--------6-----------------------------------------------------5h8p5-----|
D|---12--------6------3-0-3-6*--3-55555555--3-0-3-6--3-5555--0h3h5h6-------6---|

D|-- 16 times each ------------------------------------------------------------|
A|-----------------------------------------------------------------------------|
F|---14--------8---------------------------------------------------------------|
C|----x--------x---------------------------------------------------------------|
G|---12--------6---------------------------------------------------------------|
D|---12--------6------3-0-3-6*--3-55555555--3-0-3-6--3-5555--//-15^^^----------|


[Second Solo]
[Rhythm]
e|---------------------------------------------------------------------------|
B|---------------------------------------------------------------------------|
G|---------------------------------------------------------------------------|
D|---------------------------------------------------------------------------|
A|---------------------------------------------------------------------------|
D|-1-0-0-3-0-0-5h6-0-5h6-0-3p0-0-0---1-0-0-3-0-0-5h6-0-5h6-0-3p0-0-0---------| x2 During solo
PM   . .   . .     .     .     . .     . .   . .     .     .     . .

[Lead]
e|------------------------------|
B|--- Still working on this ----|
G|--- update ASAP --------------|
D|------------------------------|
A|------------------------------|
D|------------------------------|


[Verse]
[Both Guitars]
e|---------------------------------------------------------------------------|
B|---------------------------------------------------------------------------|
G|---------------------------------------------------------------------------|
D|---------------------------------------------------------------------------|
A|---------------------------------------------------------------------------|
D|-1-0-0-3-0-0-5h6-0-5h6-0-3p0-0-0---1-0-0-3-0-0-5h6-0-5h6-0-3p0-0-0---------| x4
PM   . .   . .     .     .     . .     . .   . .     .     .     . .

[Pre Chorus]
[Both Guitars]
D|-----------------------------------------------------------------------------|
A|-----------------------------------------------------------------------------|
F|-----------------------------------------------------------------------------|
C|-----------------------------------------------------------------------------|
G|--------------------------------------3--------------------------------------|
D|--\\-5~--0-0-0--3p-0-5p-0-6p-0-5p-0-0-3p0--0-0-0-0-0-0--0000-0-0-0-0-0-0-----|
PM         . . .                      .      . . . . . .  .... . . . . . .

D|---------------------------------------------------------------------------|
A|---------------------------------------------------------------------------|
F|---------------------------------------------------------------------------|
C|---------------------------------------------------------------------------|
G|--------------------------------------3------------------------------------|
D|--\\-5~--0-0-0--3p-0-5p-0-6p-0-5p-0-0-3p0--0-0-0-0-0-0-0-0-0-0-0-0-0-0-----|
PM         . . .                      .      . . . . . . . . . . . . . .

[Guitar 1]
D|-----------------------------------------------------------------------------|
A|-----------------------------------------------------------------------------|
F|-----------------------------------------------------------------------------|
C|-----------------------------------------------------------------------------|
G|--------------------------------------3--------------------------------------|
D|--\\-5~--0-0-0--3p-0-5p-0-6p-0-5p-0-0-3p0--0-0-0-0-0-0--0000-0-0-0-0-0-0-----|
PM         . . .                      .      . . . . . .  .... . . . . . .

D|---------------------------------------------------------------------------|
A|---------------------------------------------------------------------------|
F|---------------------------------------------------------------------------|
C|---------------------------------------------------------------------------|
G|--------------------------------------3-----------------7p6-6-6--7p6-6-6---|
D|--\\-5~--0-0-0--3p-0-5p-0-6p-0-5p-0-0-3p0--0-0-0-0-0-0--7p6-6-6--7p6-6-6---|
PM         . . .                      .      . . . . . .

[Guitar 2]
D|------------------------------------------------------------------------------|
A|------------------------------------------------------------------------------|
F|------------------------------------------------------------------------------|
C|------------------------------------------------------------------------------|
G|---------------------------------------3--------------------------------------|
D|--\\-9~--0-0-0--7p-0-9p-0-10p-0-5p-0-0-3p0--0-0-0-0-0-0--0000-0-0-0-0-0-0-----|
PM         . . .                       .      . . . . . .  .... . . . . . .

D|----------------------------------------------------------------------------|
A|----------------------------------------------------------------------------|
F|----------------------------------------------------------------------------|
C|----------------------------------------------------------------------------|
G|---------------------------------------3-----------------7p6-6-6--7p6-6-6---|
D|--\\-9~--0-0-0--7p-0-9p-0-10p-0-5p-0-0-3p0--0-0-0-0-0-0--7p6-6-6--7p6-6-6---|
PM         . . .                       .      . . . . . .


[Chorus]
[Guitar 1]
D|-------------------------------------------------------------------------------------------|
A|-------------------------------------------------------------------------------------------|
F|--7777777777777777-------------------------------------------------------------------------|
C|--7777777777777777--666666666666-----------------------------------------------------------|
G|--5555555555555555--666666666666-------------------------------------------------5h8p5-----|
D|--------------------666666666666--3-0-3-6*b--3-55555555--3-0-3-6--3-5555--0h3h5h6-------6--|

D|-------------------------------------------------------------------------------------------|
A|-------------------------------------------------------------------------------------------|
F|--7777777777777777-------------------------------------------------------------------------|
C|--7777777777777777--666666666666-----------------------------------------------------------|
G|--5555555555555555--666666666666-----------------------------------------------------------|
D|--------------------666666666666--3-0-3-6*--3-55555555--3-0-3-6--3-5555--//-15^^^----------|

[Guitar 2]
D|---16 times each ------------------------------------------------------------|
A|-----------------------------------------------------------------------------|
F|---14--------8---------------------------------------------------------------|
C|----x--------x---------------------------------------------------------------|
G|---12--------6-----------------------------------------------------5h8p5-----|
D|---12--------6------3-0-3-6*--3-55555555--3-0-3-6--3-5555--0h3h5h6-------6---|

D|-- 16 times each ------------------------------------------------------------|
A|-----------------------------------------------------------------------------|
F|---14--------8---------------------------------------------------------------|
C|----x--------x---------------------------------------------------------------|
G|---12--------6---------------------------------------------------------------|
D|---12--------6------3-0-3-6*--3-55555555--3-0-3-6--3-5555--//-15^^^----------|


[Bridge]
[Both Guitars]
e|---------------------------------------------------------------------------|
B|---------------------------------------------------------------------------|
G|---------------------------------------------------------------------------|
D|---------------------------------------------------------------------------|
A|---------------------------------------------------------------------------|
D|---1p0-0-0-0-0-0-0-0000-0-0-0-0-0-0--1p0-0-0-0-0-0-0-0000-0-0-0-0-0-0------|
PM       . . . . . . .... . . . . . .      . . . . . . .... . . . . . .

e|---------------------------------------------------------------------------|
B|---------------------------------------------------------------------------|
G|---------------------------------------------------------------------------|
D|---------------------------------------------------------------------------|
A|--------------------------------------5------8------7------3---------------|
D|---1p0-0-0-0-0-0-0-0000-0-0-0-0-0-0------6------11-----8------6---3-p-0----| x4 
Inclusing Solo
PM       . . . . . . .... . . . . . .                                             Secion

(Again, I found this hard to catch, but this kinda sounds Lamb of God enough xD)


[Main Solo]
e|------------------------------|
B|--- Any input here would -----|
G|--- Be amazing ---------------|
D|------------------------------|
A|------------------------------|
D|------------------------------|

[Both Guitars]
e|---------------------------------------------------------------------------|
B|---------------------------------------------------------------------------|
G|---------------------------------------------------------------------------|
D|---------------------------------------------------------------------------|
A|---------------------------------------------------------------------------|
D|--1s2-2--1s2-2--2br--2-2-0h2-2-2--5-5-5-5-5-5--0-0-0-0-0-0-----------------| x3

e|---------------------------------------------------------------------------|
B|---------------------------------------------------------------------------|
G|---------------------------------------------------------------------------|
D|---------------------------------------------------------------------------|
A|-----------------------------------------------0-0-0-0-0-0-0---------------|
D|--1s2-2--1s2-2--2br--2-2-0h2-2-2--5-5-5-5-5-5--7-7-7-7-7-7-7---------------|


[Break]


[Chorus]
[Guitar 1]
D|-------------------------------------------------------------------------------------------|
A|-------------------------------------------------------------------------------------------|
F|--7777777777777777-------------------------------------------------------------------------|
C|--7777777777777777--666666666666-----------------------------------------------------------|
G|--5555555555555555--666666666666-------------------------------------------------5h8p5-----|
D|--------------------666666666666--3-0-3-6*b--3-55555555--3-0-3-6--3-5555--0h3h5h6-------6--| x3

D|-------------------------------------------------------------------------------------------|
A|-------------------------------------------------------------------------------------------|
F|--7777777777777777-------------------------------------------------------------------------|
C|--7777777777777777--666666666666-----------------------------------------------------------|
G|--5555555555555555--666666666666-----------------------------------------------------------|
D|--------------------666666666666--3-0-3-6*--3-55555555--3-0-3-6--3-5555--//-15^^^----------|

[Guitar 2]
D|---16 times each ------------------------------------------------------------|
A|-----------------------------------------------------------------------------|
F|---14--------8---------------------------------------------------------------|
C|----x--------x---------------------------------------------------------------|
G|---12--------6-----------------------------------------------------5h8p5-----|
D|---12--------6------3-0-3-6*--3-55555555--3-0-3-6--3-5555--0h3h5h6-------6---| x3

D|---16 times each ------------------------------------------------------------|
A|-----------------------------------------------------------------------------|
F|---14--------8---------------------------------------------------------------|
C|----x--------x---------------------------------------------------------------|
G|---12--------6---------------------------------------------------------------|
D|---12--------6------3-0-3-6*--3-55555555--3-0-3-6--3-5555--//-15^^^----------|


[Outro]
[Both Guitars]
e|---------------------------------------------------------------------------|
B|---------------------------------------------------------------------------|
G|---------------------------------------------------------------------------|
D|---------------------------------------------------------------------------|
A|---------------------------------------------------------------------------|
D|-1-0-0-3-0-0-5h6-0-5h6-0-3p0-0-0---1-0-0-3-0-0-5h6-0-5h6-0-3p0-0-0---------| x7
PM   . .   . .     .     .     . .     . .   . .     .     .     . .

e|----------------------------------------------------------------------|
B|----------------------------------------------------------------------|
G|-----------------------------------------------------------5-5--------|
D|-----------------------------------------------------------3-3--------|
A|-----------------------------------------------------------3-3--------|
D|-1-0-0-3-0-0-5h6-0-5h6-0-3p0-0-0---1-0-0-3-0-0-5h6-0-5h6---3-3--------|
PM   . .   . .     .     .     . .     . .   . .     .            
Submit corrections

↑ Back to top | Tablatures and chords for acoustic guitar and electric guitar, ukulele, drums are parodies/interpretations of the original songs. You may use it for private study, scholarship, research or language learning purposes only