» » »

La Luz - Sunstroke Tabs

Artists:  A B C D E F G H I J K L M N O P Q R S T U V W X Y Z # 

Sunstroke Tabs

(ver. 1) Click to play this song!
La Luz
 Rating:
4.3/5 (15 votes)

 Sunstroke lessons Tabs too difficult? Try these video lessons and learn fast
 
                [Main Riff]
e|----------------------------------------------------------------------------------|
B|----------------------------------------------------------------------------------|
G|----------------------------------------------------------------------------------|
D|-------------------------1-2-1-2-1-4-2-1-2-1-----------------2-1------------------|
A|-------------------2-2-2-----------------------2-3-3-2-0-2-3-----3-2-0-2----------|
E|---7-6-5-4-3-2-1-0-------------------------------------------------------2-3------|

e|-3--3-2-3--3-2-3--3-2-3-2-3--6--6-5-6--6-5-6--6-5-6-5-6-5-------------------------| |
B|----------------------------------------------------------------------------------| |
G|----------------------------------------------------------------------------------| |
D|----------------------------------------------------------------------------------| |
A|----------------------------------------------------------------------------------| |
E|----------------------------------------------------------------------------------| |
                                                                                      |
e|-3--3-2-3--3-2-3--3-2-3-2-3--6--6-5-6--6-6-6--9-9-9--8-9-8-9-8--------------------| |
B|----------------------------------------------------------------------------------| |
G|----------------------------------------------------------------------------------| |
D|----------------------------------------------------------------------------------| |
A|----------------------------------------------------------------------------------| |
E|----------------------------------------------------------------------------------| |x2

e|----------------------------------------------------------------------------------|
B|----------------------------------------------------------------------------------|
G|----------------------------------------------------------------------------------|
D|-------------------------1-2-1-2-1-4-2-1-2-1-----------------2-1------------------|
A|-------------------2-2-2-----------------------2-3-3-2-0-2-3-----3-2-0-2-6-2------|
E|---7-6-5-4-3-2-1-0----------------------------------------------------------------|

e|----------------------------------------------------------------------------------|
B|----------------------------------------------------------------------------------|
G|----------------------------------------------------------------------------------|
D|-------1-2-1-2-1-4-2-1-2-1-----------------2-1------------------------------------|
A|-2-2-2-----------------------2-3-3-2-0-2-3-----3-2-0-2-6-2------------------------|
E|----------------------------------------------------------------------------------|

e|-4--4----4--4----5-5----4-0-4-----------------------------------------------------|
B|-4--4----4--4----5-5----4-0-4-----------------------------------------------------|
G|-4--4----4--4----5-5----4-0-4-----------------------------------------------------|
D|-4--4----4—-4----5-5----4-2-4-----------------------------------------------------|
A|-2--2----2--2----3-3----2-0-2-----------------------------------------------------|
E|----------------------------------------------------------------------------------|

e|-4--4----4--4----5-5----4-0-4-----------------------------------------------------|
B|-4--4----4--4----5-5----4-0-4-----------------------------------------------------|
G|-4--4----4--4----5-5----4-0-4-----------------------------------------------------|
D|-4--4----4—-4----5-5----4-2-4-----------------------------------------------------|
A|-2--2----2--2----3-3--- -2-0-2----------------------------------------------------|
E|----------------------------------------------------------------------------------|

e|-7-7-7----5-5-5----4-4-4-4---4-4-4-4----7-7-7----5-5-5----4-4-4-4---3---4---------|
B|-7-7-7----5-5-5----4-4-4-4---4-4-4-4----7-7-7----5-5-5----4-4-4-4---3---4---------|
G|-7-7-7----5-5-5----4-4-4-4---4-4-4-4----7-7-7----5-5-5----4-4-4-4---3---4---------|
D|-7-7-7----5-5-5----4-4-4-4---4-4-4-4----7-7-7----5-5-5----4-4-4-4---3---4---------|
A|-5-5-5----3-3-3----2-2-2-2---2-2-2-2----5-5-5----3-3-3----2-2-2-2---1---2---------|
E|----------------------------------------------------------------------------------|            
Submit corrections


        Sunstroke lessons Hard to play? Try these video lessons and learn fast Sunstroke lessons
        
↑ Back to top | Tablatures and chords for acoustic guitar and electric guitar, ukulele, drums are parodies/interpretations of the original songs. You may use it for private study, scholarship, research or language learning purposes only