» » »

La Luz - Call Me In The Day Tabs

Artists:  A B C D E F G H I J K L M N O P Q R S T U V W X Y Z # 

Call Me In The Day Tabs

(ver. 1) Click to play this song!
La Luz
 Rating:
4.1/5 (31 vote)

 Call Me In The Day lessons Tabs too difficult? Try these video lessons and learn fast
 
                [Main Riff]
      Am                              C
e|----5-----5---4/5---5-----5---5---------------------------------|This goes on and on...
B|----5-----5---4/5---5-----5---5-----5-----5---4/5---5-----5---5-|
G|----5-----5---4/5---5-----5---5-----5-----5---4/5---5-----5---5-|
D|----7-----7---6/7---7-----7---7-----5-----5---4/5---5-----5---5-|
A|----7-----7---6/7---7-----7---7-----3-----3---2/3---3-----3---3-|
E|----5-----5---4/5---5-----5---5---------------------------------|

      G                               Am                          
e|----3-----3---------3-----3---------5-----5---4/5---------------|Before the solo
B|----3-----3---------3-----3---------5-----5---4/5---------------|(after "In your path...)
G|----4-----4---------4-----4---------5-----5---4/5---------------|
D|----5-----5---------5-----5---------7-----7---6/7---------------|
A|----5-----5---------5-----5---------7-----7---6/7---------------|
E|----3-----5---------3-----3---------5-----5---4/5---------------|

[Solo]
e|----------------------------------------------------------------|
B|------------------------------------------------------------5\--|
G|----------------------------------------------------------------|
D|----------------------------------------------------------------|
A|----------------------------------------------------------------|
E|----------------------------------------------------------------|
 
e|----------------|----------------|----------------|----------------|
B|---5/-------5/--|------------1-3-|1-----0h1-------|----------------|
G|2~-------2~-----|----2~--0-2-----|--------------2~|------0-2-0---0-|
D|----------------|----------------|----------------|------------2---|
A|----------------|----------------|----------------|----------------|
E|----------------|----------------|----------------|----------------|

e|----------------|----------------|--------5/7---5~|--------5\3-----|
B|---/5-----------|-----3h5p3-1h3p1|----5h8---------|------------5\3-|
G|2---------2~--2-|2---------------|5h7-------------|----------------|
D|----------------|----------------|----------------|----------------|
A|----------------|----------------|----------------|----------------|
E|----------------|----------------|----------------|----------------|

e|----------------|----------------|----------------|----------------|
B|----------------|----------------|1-----0h1-3---1-|----------------|
G|2-----0-2-----0-|2-----0-2--0-2h4|----------------|------0-2-0---0-|
D|----------------|----------------|----------------|------------2---|
A|----------------|----------------|----------------|----------------|
E|----------------|----------------|----------------|----------------|

e|----------------|----------------|--------5/7---5~|----------------|
B|---/5-----------|-----3h5p3-1h3p1|----5h8---------|----------------|
G|2---------2~--2-|2---------------|5h7-------------|----------------|
D|----------------|----------------|----------------|----------------|
A|----------------|----------------|----------------|----------------|
E|----------------|----------------|----------------|----------------|            
Submit corrections


        Call Me In The Day lessons Hard to play? Try these video lessons and learn fast Call Me In The Day lessons
        
↑ Back to top | Tablatures and chords for acoustic guitar and electric guitar, ukulele, drums are parodies/interpretations of the original songs. You may use it for private study, scholarship, research or language learning purposes only