» » »

La Dispute - The Last Lost Continent Tabs

Artists:  A B C D E F G H I J K L M N O P Q R S T U V W X Y Z # 

The Last Lost Continent Tabs

(ver. 3) Click to play this song!
La Dispute
 Rating:
3/5 (26 votes)

 The Last Lost Continent lessons Tabs too difficult? Try these video lessons and learn fast
 
                Tuning: Drop D
D-A-D-G-B-e

|-------------------------------------------------------------------------------|
|-------------------------------------------------------------------------------|
|-------------------------------------------------------------------------------|
|-----------12-10---------------12-10-------10-12-10-----------10-12-10---------|
|-----10-12---------------10-12----------------------12-10--------------12------|
|-12~--------------7/12~---------------5/8~-----------------8~-------------10/--| (x8)

"I felt your sickness brush against my arm as I walked by you -
heard your voice but couldn't tell that it was you.
And, slowly, watched your sickness slip away into a place
that I'd once feared but I was not afraid this time
So I gave chase and found it, finally, slowly feeding from your head,
And from my friends, and from my family, so I grabbed it by the neck.
"For every lover you have ruined..." I dug my nails into its flesh.
"...and every life that you have taken..."
Slammed its head against the brick.
Its blood poured out onto the pavement,
I stirred it in with dirt and spit,
"I will take a part of you."
I made mortar from the mix.
Tore every organ from its body,
broke its bone and fashioned bricks,
I laid the mortar in between,
I made a throne for hope to sit.
"Too long you've torn us into pieces,
firmly held onto our wrists. Today I bury you in me."
I swallowed every inch of it."

|-----------------------------------------------------------------------------------------------------|
|-----------------------------------------------------------------------------------------------------|
|-----------------------------------------------------------------------------------------------------|
|-------7-5-8------------------------7-5-8----------------------------------7---------------------7---|
|-5-5-----------5-5---7-8------5-5-----------5-5---7-8-------8-8-10-10-8-8----8----8-8-10-10-8-8----8-|
|-------------------------------------------------------8-8---------------------8-8-------------------|

|-------------------------------------------------------------------------------|
|-6-66-66-66-66/8~--5-55-55-55-55/6~--------------------------------------------|
|----------------------------------------------0-0-----2-2---------0-0-----2-2--|
|-------------------------------------------3-3-----3-3---------3-3-----3-3-----|
|---------------------------------------1-1-----------------1-1-----------------|
|-------------------------------------------------------------------------------| (x4)

|------------------------------------|
|-6-66-66-66-66/8~--5-55-55-55-55/6~-|
|------------------------------------|
|------------------------------------|
|------------------------------------|
|------------------------------------|

|-------------------------------------------------------------|
|-------------------------------------------------------------|
|-------------------------------------------------------------|
|-0-0-0-0-0-0--0-0--0-0-0-0--0-0-0-0-0-0--0-0-0-0-0-0---------|
|-0-0-0-0-0-0--0-8-10-8-7-5--3-3-3-3-3-3--3-3-3-3-2-2---------|
|-0-0-0-0-0-0--0-8-10-8-7-5--3-3-3-3-3-3--3-3-3-3-2-2---------| (x4)

"I'll hold you, as you have held me -
you've held me in your heart, we'll be set free from fear.
We've felt our failures.
We've watched our passions leave, but we're still breathing on.
I'll hold you, as you have held me,
You've held me in your heart."

|-------------------------------------------------------------------------------------------|
|-------------------------------------------------------------------------------------------|
|---------2----------------------------------------------------------7----------------------|
|-----0-----0-------0-----0--------0-------0-------0------0------0-----0-------0-------0----|
|-------------------------------------------------------------------------------------------|
|-0-0---0-----0-/-3---3/5---5--/-8---8-8-8---8-\-7---7/10---10\8---8-----8-\-7---7-\-5---5\-| (x9)

"But I still see him dead in the parking lot at the gas station just down the street.
And I still hear my friend say,
"You know, you wouldn't believe the things I saw when I was stationed overseas."
But he somehow keeps smiling in spite all of that,
while I keep finding ways to push the good out for the bad
Oh, how selfish of myself to always say that it was more than I could take,
like it was pain I could not shake,
like it could break me with its fingers, throw my body in the lake,
and I would slowly sink away
but the Truth is it was sorrow that I made and would not face.
See, I keep falling for the future after tripping on the past.
And I am always tearing sutures out to make the anguish last like it defines me.
Or reminds me I've found comfort in my suffering
and uncertainty in happiness and death,
because what's next is such a mystery to me.
I am terrified of all the things I feel but cannot see.
Friends and family, put your hand into my hand and lay your head into my chest.
You are all that I have left here
We are all that we have left.
We are the lovers, We are the last of our kind.
Link your arms and keep your chin up
and I swear that we'll be fine.
We are the lovers, We are the last of our kind."

(1 silent measure)

|----------------------------|
|----------------------------|
|-7-10-7---------------5/3~--|
|--------10---7-10-7---------|
|----------------------------|
|----------------------------| (x4)

|---------------------------------------------------|
|---------------------------------------------------|
|-------10------------------------------------------|
|-10/12----12-10----10------------------------------|
|----------------12----12-10\8----------------------|
|---------------------------------------------------| (x4)

|-------------------------------------------------------------|
|--------13-10------------------------13-10-------------------|
|--------------10-12-9-10----------10-------10-12-9-----------|
|--10h12---------------------10-12----------------------------|
|-------------------------------------------------------------|
|-------------------------------------------------------------| (x10)

"Though we're not sure who we are, we keep our heads up 
though we're not sure where we're from, we keep our hearts up
though we're not sure when we'll leave, we keep our heads up 
though we're not sure where we'll go, we keep our hopes up.
Keep your head up. we're fine. Just keep your head up. I swear we'll be alright.
Keep your head up. My friends, my friends, keep your head up. I swear."

|-------------------------------------------------------------|
|-------------------------------------------------------------|
|-------10----9-----------------------------------------------|
|----10----12---10----------------10--------------------------|
|-12---------------12/14-15-14\12----12-----------------------|
|-------------------------------------------------------------| (x4)

"I swear we'll never die, I swear. We'll get home safe and sound, I swear.
I swear we'll never die, I swear. We'll live on underground, I swear."

e|-----1-1---|---1-1---1---|---1-1------|---1-1--1---|
B|-----3-3---|---3-3---3---|---3-3---d--|---3-3--3---|
G|-----2-2---|---2-2---2---|---2-2---r--|---2-2--2---|
D|-----0-0---|---0-0---0---|---0-0---u--|---0-0--0---|
A|-----0-0---|---0-0---0---|---0-0---m--|---0-0--0---|
D|-----0-0---|---0-0---0---|---0-0---s--|---0-0--0---|
 
"I will give your heart a place to rest when everything you had has turned and left."

e|---------------1-1--|--------------1-1--1-|-----------------|--------------1-1--|
B|---------------3-3--|--------------3-3--3-|--------------d--|--------------3-3--|
G|---------------2-2--|--------------2-2--2-|--------------r--|--------------2-2--|
D|-----3---2-----0-0--|-----3---2----0-0--0-|-----3---2----u--|-----3---2----0-0--|
A|-3-5---5---3---0-0--|-3-5---5---3--0-0--0-|-3-5---5---3--m--|-3-5---5---3--0-0--|
D|---------------0-0--|--------------0-0--0-|--------------s--|--------------0-0--|

e|------------------1-1--|-----------------------1-1--1-|
B|------------------3-3--|-----------------------3-3--3-|
G|------------------2-2--|-----------------------2-2--2-|
D|-----3---2--------0-0--|-----3---2-------------0-0--0-|
A|-3-5---5---3-0-5--0-0--|-3-5---5---3-0-5-0-1---0-0--0-|
D|------------------0-0--|-----------------------0-0--0-|

e|--------------------------1-1-|--------------------------------------|
B|--------------------------3-3-|----------------------------3--3--3---|
G|--------------------------2-2-|----------------------------2--2--2---|
D|-----3---2----------------0-0-|-----3---2------------------0--0--0---|
A|-3-5---5---3-0-5-0-1-0-0--0-0-|-3-5---5---3-0-5-0----------0--0--0---|
D|--------------------------0-0-|-------------------8-7-5-0--0xx0xx0---|

[9:22]
e|-------------------------------------------------------------------|
B|-------------------------------------------------------------------|
G|-------------------------------------------------------------------|
D|-----3---2-------------------------------3---2---------------3333--|
A|-3-5---5---3-0-5-0-1-0-0-------------3-5---5---3-0-5-0-1-000-------|
D|---------------------------5-3-0-----------------------------------|

e|-------------------------------------------------------------------|
B|-------------------------------------------------------------------|
G|-------------------------------------------------------------------|
D|-----3---2-------------------------------3---2---------------3333--|
A|-3-5---5---3-0-5-0-1-0-3-0-----------3-5---5---3-0-5-0-1-000-------|
D|---------------------------5-3-0-----------------------------------|


[9:48]
|-----------------------|
|-----------------------|
|-----------------------|
|-0~-0~-0~-0~---0~-0~-0-|
|-0~-0~-0~-0~---0~-0~-0-|
|-0~-0~-0~-0~---0~-0~-0-|
 
"We are but friends and family, we are the last of our kind.
So hold my hand, I'll lift your head up, and I promise we'll be fine.
We are but hopeful lovers, and we are running out of time.
There's so much stacking up against us, and we're falling far behind.
We are but hopeful lovers, we are the last of our kind,
But if we let our hearts move outward, I know we will never-
We are but lovers, we are the last of our kind.
And if we let our hearts move outward, I know we will never-
We are but lovers, we are the last of our kind.
And if we let our hearts move outward, we will never die."            
Submit corrections


        The Last Lost Continent lessons Hard to play? Try these video lessons and learn fast The Last Lost Continent lessons
        
↑ Back to top | Tablatures and chords for acoustic guitar and electric guitar, ukulele, drums are parodies/interpretations of the original songs. You may use it for private study, scholarship, research or language learning purposes only