Home » L » La Dispute »

La Dispute - The Most Beautiful Bitter Fruit Bass

Artists:  A B C D E F G H I J K L M N O P Q R S T U V W X Y Z # 

The Most Beautiful Bitter Fruit Bass

(ver. 1) Click to play this song!
La Dispute
 Rating:
4/5 (4 votes)
                La Dispute
The Most Beautiful Bitter Fruit
Wildlife (2011)

message me if you think anything is wrong. I tried my best to convey the
timing but a few trials and listens should clear up any confusion :)

Finger picked by the way.

G|-----------------------------------------------------------|
D|-----------------------------------------------------------|
A|-----------------------------------------------------------|
E|-0000-000-00-0000-0-33-22---5-0-55-505-55-50555-33-22------|  x3


G|-------------------------------------------------------------------|
D|-------------------------------------------------------------------|
A|-7777777-5555555-----------------------------------------------555-|
E|-----------------8888888-55h77\333-7777777-8888888-5555555-8888----|


G|--------------------------------------------------------------------|
D|--------------------------------------------------------------------|
A|-7777777-5555555----------------------------------------------------|
E|-----------------8888888-55h77\33-7777777-88888880---0---0---0-12\0-|


G|-----------------------------------------------------------------------------------|
D|--------------------------------------------------------------[ten not 1-0]--------|
A|---33333333-222222222-------------------33333333-22225555-----101010109999555------|
E|---------------------3000000000-3-0-3-00------------------00000--------------------|  x2


G|----------------------------------------|
D|----------------------------------------|
A|---33333333-222222222-33333333----------|
E|-------------------------------55h77\33-|


G|------------------------------------------------------------------|
D|------------------------------------------------------------------|
A|-7777777-5555555----------------------------------------------555-|
E|----------------8888888-55h77\333-7777777-8888888-5555555-8858----|



G|-------------------------------------------------------------------|
D|-------------------------------------------------------------------|
A|-7777777-5555555----------------------------------7--7--5--5-------|
E|----------------8888888-55h77\33-7777777-88888880------------------|


G|---------------------------------------------|
D|---------------------------------------------|
A|-5--55-----------------555h7-----------------|
E|------8--8--7\30------7-----8-887-77777777---|  x3


G|-------------------------------------------------------------|
D|-------------------------------------------------------------|
A|-------------------------------------------------------------|
E|-333222000000000000000000000000333222555055555555555055555555| x2

G|-----------------------|
D|-----------------------|
A|-----------------------|
E|-3332220-0-0-0-0-0-0-0-|
            
Submit corrections

↑ Back to top | Tablatures and chords for acoustic guitar and electric guitar, ukulele, drums are parodies/interpretations of the original songs. You may use it for private study, scholarship, research or language learning purposes only