» » »

La Dispute - The Castle Builders Tabs

Artists:  A B C D E F G H I J K L M N O P Q R S T U V W X Y Z # 

The Castle Builders Tabs

(ver. 3) Click to play this song!
La Dispute
 Rating:
4/5 (4 votes)

 The Castle Builders lessons Tabs too difficult? Try these video lessons and learn fast
 
                == GUITAR ONE ==

(0:09)
e|---------------------------------------------------------------|
B|---------------------------------------------------------------|
G|--------------------------------------------------------[x2]---|
D|-8--------------7---------3--------5-----------7---------------|
A|-8--------------7---------3--------5-----------7---------------|
D|-8--------------7---------3--------5-----------7---------------|

(0:18)
e|---------------------------------------------------------------|
B|--------------------------------------------[x2]---------------|
G|-1010101010101010-999999999-55555--7-7-7-7-7-7-7-7-7-7-7-6-6-6-|
D|-x-x-x-x-x-x-x-x--xxxxxxxxx-xxxxx--x-x-x-x-x-x-x-x-7-7-7-7-7-7-|
A|-8-8-8-8-8-8-8-8--777777777-33333--5-5-5-5-5-5-5-5-5-5-5-5-5-5-|
D|---------------------------------------------------------------|

(0:40)
e|---------------------------------------------------------------|
B|---------------------------------------------------------------|
G|----5-------5h7-5--------5-------5-----------------------------|
D|-77-5--57-7-5h7-5-----77-5--57-7-5-7-5------[x2]---------------|
A|-77----57-7-----------77----57-7---7-5-------------------------|
D|-77--x-57-7-----------77--x-57-7---7-5-------------------------|

(0:58)
e|---------------------------------------------------------------|
B|---------------------------------------------------------------|
G|---------------------------------------------------------------|
D|-7-5/7--7-5/7-7\--2-0h2-2-1010101010-9999999----[x3]----7~-----|
A|-7-5/7--7-5/7-7\--2-0h2-2-1010101010-9999999------------7~-----|
D|-7-5/7--7-5/7-7\--2-0h2-2-1010101010-9999999------------7~-----|

(1:38)
e|---------------------------------------------------------------|
B|-----------------------------------------[x2]------------------|
G|---------------------------------------------------------------|
D|---------------------------------------------------------------|
A|-3-------3-------3-------33-55--3-------3-------3-------33-----|
D|---7-5h7---7-5h7---7-5h7----------7-5h7---7-5h7---7-5h7----55--|

(1:57)
e|---------------------------------------------------------------|
B|---------------------------------------------------------------|
G|---------------------------------------------------------------|
D|------7---------777777----33333----5555555-----777777----------|
A|------7---------777777----33333----5555555-----777777----------|
D|------7---------777777----33333----5555555-----777777----------|

e|---------------------------------------------------------------|
B|---------------------------------------------------------------|
G|---------------------------------------------------------------|
D|-88888----------777777----333333---5555555-----77777777777-----|
A|-88888----------777777----333333---5555555-----77777777777-----|
D|-88888----------777777----333333---5555555-----77777777777-----|

(2:16)
e|----------------------------------------------------17*----------|
B|-----------------------------------------------------------------|
G|----5-------5h7-5--------5-------5-----------14*-----------------|
D|-77-5--57-7-5h7-5-----77-5--57-7-5-7-5---------------------------|
A|-77----57-7-----------77----57-7---7-5---------------------------|
D|-77--x-57-7-----------77--x-57-7---7-5---------------------------|



== GUITAR TWO ==

(0:00)
e|----------------------------------------------------------|
B|----------------------------------------------------------|
G|---7-10\7-5--------5\-------2\-----------------7-6--------|
D|------------------------------------8\7------7-----7------|
A|----------------------------------------------------------|
D|-8------------7-7-------3--------5-------5/7----------77--|

(0:18)
e|---------------------------------------------------------------|
B|---------------------------------------------------------------|
G|--------------------------------------------------------[x2]---|
D|-88888888888----7777777---3333333--555555555---7777777---------|
A|-88888888888----7777777---3333333--555555555---7777777---------|
D|-88888888888----7777777---3333333--555555555---7777777---------|

(0:40)
e|-----------------------------------------------------------------|
B|-----------------------------------------------------------------|
G|----5-------5h7-5--------5-------5-------------------------------|
D|-77-5--57-7-5h7-5-----77-5--57-7-5-7-5------[x2]-----------------|
A|-77----57-7-----------77----57-7---7-5---------------------------|
D|-77--x-57-7-----------77--x-57-7---7-5---------------------------|

(0:58)
e|--------------------------------------------------------------|
B|--------------------------------------------------------------|
G|---------------------------9-9----7--7--7---------------------|
D|-7-5/7--7-5/7-7\--2-0h2-2--1010-10-10-10----------------------|
A|-7-5/7--7-5/7-7\--2-0h2-2-------------------------------------|
D|-7-5/7--7-5/7-7\--2-0h2-2-------------------------------------|

e|-------------------------------|---------------------------------|
B|------------------[x2]---------|---------------------------------|
G|-------------------------------|---------------------9-9----7--7-|
D|----------10----------10101010-|-------5-------5555--1010-10-10--| [x2]
A|-12121212----12-10-12-12121212-|-77777---7-5-7-7777--------------|
D|-------------------------------|---------------------------------|

(1:37)
e|--5---5-55----5---5--55---5---5---55---5---5---55--------------------|
B|--5---5-55----5---5--55---5---5---55---5---5---55--------------------|
G|--5---5-55----5---5--55---5---5---55---5---5---55----[x3]------------|
D|--7---7-77----7---7--77---7---7---77---7---7---77--------------------|
A|---------------------------------------------------------------------|
D|-----------------------------------------------------------5555-7777-|

(1:57)
e|---------------------------------------------------------------|
B|---------------------------------------------------------------|
G|---7-10-7----------5\-------2\---------------------7-6---------|
D|----------10-8-----------------------8\7----------7----7-------|
A|---------------------------------------------------------------|
D|-8--------------7-7-------3--------5----------5/7--------77----|

e|----------------------0~-----|
B|----------------------5~-----|
G|-7-7-7-7-7-6-6-6-6-6--6~-----|
D|-7-7-7-7-7-7-7-7-7-7--7~-----|
A|-5-5-5-5-5-5-5-5-5-5--5~-----|
D|-----------------------------|

(2:16)
e|-----------------------------------------------------------------|
B|-----------------------------------------------------------------|
G|----5-------5h7-5--------5-------5-------------------------------|
D|-77-5--57-7-5h7-5-----77-5--57-7-5-7-5------[x2]-----------------|
A|-77----57-7-----------77----57-7---7-5---------------------------|
D|-77--x-57-7-----------77--x-57-7---7-5---------------------------|
            
Submit corrections


        The Castle Builders lessons Hard to play? Try these video lessons and learn fast The Castle Builders lessons
        
↑ Back to top | Tablatures and chords for acoustic guitar and electric guitar, ukulele, drums are parodies/interpretations of the original songs. You may use it for private study, scholarship, research or language learning purposes only