» » »

La Dispute - Said The King To The River Tabs

Artists:  A B C D E F G H I J K L M N O P Q R S T U V W X Y Z # 

Said The King To The River Tabs

(ver. 2) Click to play this song!
La Dispute
 Rating:
4/5 (4 votes)

 Said The King To The River lessons Tabs too difficult? Try these video lessons and learn fast
 
                == GUITAR ONE ==

0:00
E|-0~--|-0~--|-0~--|----------------------------------|
B|-1~--|-1~--|-1~--|----------------------------------|
G|-2~--|-2~--|-2~--|----------------------------------|
D|-2~--|-2~--|-2~--|-10\3~--3/7~--7\3~---3/7~-777777\-|
A|-0~--|-0~--|-0~--|-10\3~--3/7~--7\3~---3/7~-777777\-|
D|-----|-----|-----|-10\3~--3/7~--7\3~---3/7~-777777\-|

0:16
E|-0~--|-0~--|-0~--|----------------------------------|
B|-1~--|-1~--|-1~--|----------------------------------|
G|-2~--|-2~--|-2~--|----------------------------------|
D|-2~--|-2~--|-2~--|-10\3~--3/7~--7\3~---3/7~-777777\-|
A|-0~--|-0~--|-0~--|-10\3~--3/7~--7\3~---3/7~-777777\-|
D|-----|-----|-----|-10\3~--3/7~--7\3~---3/7~-777777\-|

0:37
E|-0---|-0---|----|
B|-1---|-1---|----|
G|-2---|-2---|----|
D|-2---|-2---|-7~-|
A|-0---|-0---|-7~-|
D|-----|-----|-7~-|

0:55
E|-0-0-0-0-xxx-0-0-0-0-xxx-0-0-0-0-xx-------------|------|-----|
B|-1-1-1-1-xxx-1-1-1-1-xxx-1-1-1-1-xx-1-1-1-1-1---|------|-----|
G|-2-2-2-2-xxx-2-2-2-2-xxx-2-2-2-2-xx-2-2-2-2-2---|------|-----|
D|-2-2-2-2-xxx-2-2-2-2-xxx-2-2-2-2-xx-3-3-3-3-3---|-[x2]-|-----|
A|-0-0-0-0-xxx-0-0-0-0-xxx-0-0-0-0-xx-3-3-3-3-3---|------|-12\-|
D|------------------------------------------------|------|-----|

1:13
E|-0---|-0---|
B|-1---|-1---|
G|-2---|-2---|
D|-2---|-2---|
A|-0---|-0---|
D|-----|-----|

1:20
E|-----------------------------------------------------------|----|
B|---------------------------(no idea how this part works.)--|----|
G|-----5----------5---5-(nobody else seems to know either.)--|----|      
D|-----5----------5---5--------------------------------------|----|
A|-057----5-7-5-0---7----5-7-5-0-5-7-5-0---------------------|-0~-|
D|-----------------------------------------------------------|----|

1:56
E|------------|------------|
B|------------|------------|
G|------------|------------|
D|--------7---|--------7---|
A|--------7---|--------7---|
D|---5555-7---|---5555-7---|
                        
2:03
e|-0--1-----|--0--1-------------|
B|-1---1----|--1----1--------8--|
G|-2----2---|--2------2------7--|
D|-2-----3--|--2--------3-------|
A|-0------3-|--0----------3-----|
E|----------|-------------------|

2:23
e|----------------------------------|---------------------------------------|
B|--------------3-----1-------------|---------------3-------1-------3-------|
G|----5-----------------2-----------|-7---5-------------------2-------------|
D|------7---5-3---0-0-3----5-3-3-5--|-------7---5-3---0-0-------5\3---2-0---|
A|----------------------------------|---7-----------------0---------------0-|
E|--7-------------------------------|---------------------------------------|

2:48
E|-------------------------------------|
B|-------------------------------------|
G|-----5------5-----------7-----4---4--|
D|---7-----7-------7-5-----------------|
A|----------------------8-----5---5----|
D|-------------------------------------|

E|-----5-5----5-5----------------------|------|----|
B|-----5-5----5-5---------6-6-----3-3--|------|----|
G|-----5-5----5-5---------7-7-----4-4--|------|-9*-|
D|---7-----7-------7-5-----------------|-[x3]-|----|
A|----------------------8-8-8---5-5-5--|------|----|
D|-------------------------------------|------|----|
                
3:21                    
E|-------------------------------------|
B|-5-5-5-------------------------------|
G|-5-5-5------5-5-5--------------------|
D|-7-7-7-7777-7-7-7--------------------|
A|------------8-8-5--5555--------------|
D|-------------------------------------|

3:42
E|---------------------------------------------------------------------------------------|
B|---------------------------------------------------------------------------------------|
G|---------------------------------------------------------------------------------------|
D|---------------------------------------------------------------------------------------|
A|---------------------------------------------------------------------------------------|
D|---7-7-7-7-7-7-7-7-7-7-7-7-7-7-7-7-10-10-10-10-10-10-12-12-12-12-12-12-12-12-12-12-----|
                                                                        
E|---------------------------------------------------------------------------------------|
B|---------------------------------------------------------------------------------------|
G|---------------------------------------------------------------------------------------|
D|---------------------------------------------------------------------------------------|
A|---------------------------------------------------------------------------------------|
D|---7-7-7-7-7-7-7-7-7-7-7-7-7-7-7-7-10-10-10-10-10-10-14-14-14-14-14-14-14-14-14-14-----|

3:53
E|-77-7777-----------77-7777-------------77-7777-----------77-7777---------7777-7777-----|
B|-55-5555-----------55-5555-------------55-5555-----------55-5555---------5555-5555-----|
G|-55-5555-----------55-5555-------------55-5555-----------55-5555---------5555-5555-----|
D|-77-7777-----------77-7777-------------77-7777-----------77-7777---------7777-7777-----|
A|---------0-0-0-0-0---------0-0-0-0-0-0---------0-0-0-0-0---------0-0-0-0---------------|
D|---------------------------------------------------------------------------------------|



== GUITAR TWO ==

0:00
E|-0~------|-0~------|-0~------|-0~------|
B|--1~-----|--1~-----|--1~-----|--1~-----|
G|---2~----|---2~----|---2~----|---2~----|
D|----2~---|----2~---|----2~---|----2~---|
A|-----0~--|-----0~--|-----0~--|-----0~--|
D|---------|---------|---------|---------|

0:18
E|----------------------------------------------|
B|-----1----------1----------1----------1-------|
G|---------2----------2----------2----------2---|
D|--3----3-----3----3-----2----2-----2----2-----| [x2]
A|----------------------------------------------|
D|----------------------------------------------|

0:37
E|-0---|-0---|
B|-1---|-1---|
G|-2---|-2---|
D|-2---|-2---|
A|-0---|-0---|
D|-----|-----|

0:43
E|-------------------------------1-1-|
B|-------------------5-5-5-5-3-3-----|
G|---2-2-2-2-5-5-5-5-----------------|
D|-----------------------------------|
A|-----------------------------------|
D|-----------------------------------|

0:49
E|----------------------------------------------|
B|-----1----------1----------1----------1-------|
G|---------2----------2----------2----------2---|
D|--3----3-----3----3-----2----2-----2----2-----|
A|----------------------------------------------|
D|----------------------------------------------|

0:55
E|-0-0-0-0-xxx-0-0-0-0-xxx----------xx----------------|------|-0~--|
B|-1-1-1-1-xxx-1-1-1-1-xxx----------xx----------------|------|-1~--|
G|-2-2-2-2-xxx-2-2-2-2-xxx-9-9-9999-xx-5-5-10101010---|------|-2~--|
D|-2-2-2-2-xxx-2-2-2-2-xxx-x-x-xxxx-xx-x-x-x-x-x-x----|-[x2]-|-2~--|
A|-0-0-0-0-xxx-0-0-0-0-xxx-7-7-7777-xx-3-3-8-8-8-8----|------|-0~--|
D|----------------------------------------------------|------|-----|

1:13
E|-0---|-0---|
B|-1---|-1---|
G|-2---|-2---|
D|-2---|-2---|
A|-0---|-0---|
D|-----|-----|

1:20
e|-----|----|-------|-----|--------|-----|------|-----|----------|
B|-----|----|-------|-----|--------|-----|------|-----|----------|
G|-----|----|-------|-----|--------|-----|------|-----|----------|
D|--7--|-7--|--7-7--|--7--|---7-7--|--7--|--7-7-|--7--|-7--(7)---|
A|--7--|-7--|--7-7--|--7--|---7-7--|--7--|--7-7-|--7--|-7--------|
D|--7--|-7--|--7-7--|--7--|---7-7--|--7--|--7-7-|--7--|-7--------|
1:31
E|-----------------------------------------------|------|------|---------|
B|-----------------------------------------------|------|------|---------|
G|----------9-7---10--------------9-7------------|-[x4]-|------|---------|
D|---7---10------------9-7---10---------9---10---|------|-7~---|---------|
A|-----------------------------------------------|------|------|---------|
D|-----------------------------------------------|------|------|-5555-7--|

2:05
E|-----------------------------------------------|------|
B|-----------------------------------------------|------|
G|----------9-7---10--------------9-7------------|-[x8]-|
D|---7---10------------9-7---10---------9---10---|------|
A|-----------------------------------------------|------|
D|-----------------------------------------------|------|

2:46
E|---------------------------------------------------------------------------------------|
B|---------------------------------------------------------------------------------------|
G|---------------------------------------------------------------------------------------|
D|---------------------------------------------------------------------------------------|
A|-0-0-0-0-0-0-0-0-0-0-0-0-0-0-0-0-0-0-0-0-0-0-0-0-0-0-0-0-0-0-0-0-0-0-0-0-0-0-0-0-000---|
D|---------------------------------------------------------------------------------------|

2:58
E|---------------------------------------------------------------------------------------|
B|---------------------------------------------------------------------------------------|
G|---------------------------------------------------------------------------------------|
D|---------------------------------------------------------------------------------------|
A|---------------------------------------------------------------------------------------|
D|---7-7-7-7-7-7-7-7-7-7-7-7-7-7-7-7-10-10-10-10-10-10-12-12-12-12-12-12-12-12-12-12-----|
                                                                        
E|---------------------------------------------------------------------------------------|
B|---------------------------------------------------------------------------------------|
G|---------------------------------------------------------------------------------------|
D|---------------------------------------------------------------------------------------|
A|---------------------------------------------------------------------------------------|
D|---7-7-7-7-7-7-7-7-7-7-7-7-7-7-7-7-10-10-10-10-10-10-14-14-14-14-14-14-14-14-14-14-----|


2:20
E|------------------------------------------------------------------------|
B|------------------------------------------------------------------------|
G|-----------------------------------------9p7----------------------------|
D|---5h7-7-7-7-7-5h7-7-7-7-7-10p7-7p5-10p7-----10p7-5h7---7-7-7-5h7-7-7---|
A|------------------------------------------------------------------------|
D|------------------------------------------------------------------------|

E|----------------------------------------------------------------|
B|----------------------------------------------------------------|
G|-----------------------------------------9p7--------------------|
D|---5h7-7-7-7-7-5h7-7-7-7-7-10p7-7-7-10p7-----10p7-5h7---5-5h7---|
A|----------------------------------------------------------------|
D|----------------------------------------------------------------|

E|-----------------------------------------------|
B|---10h13-8h-10---------------------------------|
G|---------------9h12-7h9-7----------------------|
D|--------------------------10-9h10-9p7-7-7------| [x4]
A|-----------------------------------------------|
D|-----------------------------------------------|


3:43                                    
E|---------------------------------------------------------------------------------------|
B|---------------------------------------------------------------------------------------|
G|---------------------------------------------------------------------------------------|
D|---------------------------------------------------------------------------------------|
A|---------------------------------------------------------------------------------------|
D|---7-7-7-7-7-7-7-7-7-7-7-7-7-7-7-7-10-10-10-10-10-10-12-12-12-12-12-12-12-12-12-12-----|
                                                                        
E|---------------------------------------------------------------------------------------|
B|---------------------------------------------------------------------------------------|
G|---------------------------------------------------------------------------------------|
D|---------------------------------------------------------------------------------------|
A|---------------------------------------------------------------------------------------|
D|---7-7-7-7-7-7-7-7-7-7-7-7-7-7-7-7-10-10-10-10-10-10-14-14-14-14-14-14-14-14-14-14-----|

3:52
E|-------------------77-7777-------------77-7777-----------77-7777---------7777-7777-----|
B|-------------------55-5555-------------55-5555-----------55-5555---------5555-5555-----|
G|-------------------55-5555-------------55-5555-----------55-5555---------5555-5555-----|
D|-------------------77-7777-------------77-7777-----------77-7777---------7777-7777-----|
A|---------0-0-0-0-0---------0-0-0-0-0-0---------0-0-0-0-0---------0-0-0-0---------------|
D|---------------------------------------------------------------------------------------|

            
Submit corrections


        Said The King To The River lessons Hard to play? Try these video lessons and learn fast Said The King To The River lessons
        
↑ Back to top | Tablatures and chords for acoustic guitar and electric guitar, ukulele, drums are parodies/interpretations of the original songs. You may use it for private study, scholarship, research or language learning purposes only