» » »

La Dispute - Sad Prayers For Guilty Bodies Tabs

Artists:  A B C D E F G H I J K L M N O P Q R S T U V W X Y Z # 

Sad Prayers For Guilty Bodies Tabs

(ver. 2) Click to play this song!
La Dispute
 Rating:
4/5 (4 votes)

 Sad Prayers For Guilty Bodies lessons Tabs too difficult? Try these video lessons and learn fast
 
                == GUITAR ONE ==

0:05
e|-------------------------------------------------------------|
B|-------------------------------------------------------------|
G|-7----7---------7----7-----------7----7-----------7---7------|
D|-8----7---------8----7---~-------8----7-----------8---7------|
A|-8~---5-~-------8----5-----------8----5-----------8---5------|
D|--------~----------------------------------------------------|


0:30
e|---------------------------------------------------------------|
B|---------------------------------------------------------------|
G|-----0----------2------------0------------2--------------------|
D|---0----------0------------0------------0-----------[x2]-------|
A|-1-----------------------1-------------------------------------|
D|-----------0-------------------------0-------------------------|


0:55
e|----------------------------------------------------------------|
B|----------------------------------------------------------------|
G|-------5----------------5---------------5-------9---5---7---5---|
D|-7---7---7---7----7---7---7-------7---7---7---------------------|
A|---0-------0--------0-------0-------0-------0-----0---0---0-----|
D|----------------------------------------------------------------|

e|----------------------------------------------------------------|
B|----------------------------------------------------------------|
G|-------5----------------5---------------5-------9---5---7---5---|
D|-7---7---7---7----7---7---7-------7---7---7---------------------|
A|---0-------0--------0-------0-------0-------0-----0---0---0-----|
D|----------------------------------------------------------------|

e|---------------------------------------------------------------|
B|---------------------------------------------------------------|
G|---5----77777777-9999-1010--------5------77777777-9999-1010----|
D|-----7--77777777-9999-1010------7-----7--77777777-9999-1010----|
A|-0------55555555-7777-8-8-----0-----0----55555555-7777-8-8-----|
D|---------------------------------------------------------------|


1:21
e|-------------------|
B|-------------------|
G|-77-77-55-77-77----|
D|-77-77-55-77-77----|
A|-55-55-33-55-55----|
D|-------------------|


1:26
e|----------------------------------|----------------------------------|
B|----------------------11-11-11-11-|---------------------11-11-11-11--|
G|---7------------------14-14-14-14-|---7-----------------14-14-14-14--|
D|-0-x------------5/8---------------|-0-x-----------5/8----------------|
A|-0-5--7-5---5---5/8------[x3]-----|-0-5--7-5---5--5/8----------------|
D|-0--------------5/8---------------|-0-------------5/8----------------|

e|--------------------------------------|----------------------------------|
B|--------------------------------------|---------------------11-11-11-11--|
G|---7----------------------------------|---7-----------------14-14-14-14--|
D|-0-x------------5/8---888-888-888-888-|-0-x-----------5/8----------------|
A|-0-5--7-5---5---5/8---888-888-888-888-|-0-5--7-5---5--5/8----------------|
D|-0--------------5/8---888-888-888-888-|-0-------------5/8----------------|


1:49
e|-----------------------------------|
B|-----------------------------------|
G|-----------------------------------|
D|-0------0------0------0------(0)---|
A|-0------0------0------0------(0)---|
D|-0-x-xx-0-x-xx-0-x-xx-0-x-xx-(0)---|

e|-----------------------------------|
B|-----------------------------------|
G|-----------------------------------|
D|-0------0------0------0------(0)---|
A|-0------0------0------0------(0)---|
D|-0-x-xx-0-x-xx-0-x-xx-0-x-xx-(0)---|

e|-----------------------------------|
B|-----------------------------------|
G|-----------------------------------|
D|-(0)----0------0------0-------0----|
A|-(0)----0------0------0------------|
D|-(0)----0-x-xx-0-x-xx-0-x-xx-------|


2:10
e|---------------------------------------------------------------|
B|---------------------------------------------------------------|
G|-----7-6-------------------------------------------------------|
D|---------8-7----7-7-----8-8----10-10---------------------------|
A|-5-----------8------/10-----12---------------------------------|
D|---------------------------------------------------------------|


2:24
e|---------------------------------------------------------------|
B|---------------------------------------------------------------|
G|---2---2-----2---2-----2-----2-------2-----2-------------------|
D|-0---0-----0---0-----------------------------------------------|
A|---------------------3----3-------1-----1----------------------|
D|---------------------------------------------------------------|


2:53
e|---------------------------------------------------------------|
B|---------------------------------------------------------------|
G|---2---2-----2---2-----2-----2-------2-----2-------------------|
D|-0-0---0---0-0---0-----0-----0-------0-----0-------------------|
A|---------------------3------------1----------------------------|
D|---------------------------------------------------------------|


3:30
e|-----------------|
B|-----------------|
G|-2-2-2-----------|
D|-0-0-0--3---0----|
A|-1-1-1--3---0----|
D|--------3---0----|




== GUITAR TWO ==


0:05
e|-----------------------------------------------------------------------|
B|-----------------------------------------------------------------------|
G|-----------------------------------------------------------------------|
D|-----------------------------------------------------------------------|
A|-5------0-----------5-------0-----------5-----5/0------------5----5/0--|
D|-8------12----------8-------12----------8-----8/12--------12\8----8/12-|


0:30
e|---------------------------------------------------------------|
B|---------------------------------------------------------------|
G|-------0-------0-------3-3p2-------------2------2--------------|
D|---0---------0-------0-------3/5-0---3p0----3p0---3p0----------|
A|-1---1-----1-------1-----------------------------------1-1\----|
D|---------------------------------------------------------------|

e|---------------------------------------------------------------|
B|---------------------------------------------------------------|
G|----------------7-7-7-7-7-9-9-9-9-1010-------------------------|
D|----------------7-7-7-7-7-9-9-9-9-1010---[x4]------------------|
A|-1-1-1-1-1-1-1--5-5-5-5-5-7-7-7-7-8-8--------------------------|
D|---------------------------------------------------------------|


1:21
e|-------------------|
B|-------------------|
G|-77-77-55-77-77----|
D|-77-77-55-77-77----|
A|-55-55-33-55-55----|
D|-------------------|


1:26
e|----------------------------------|----------------------------------|
B|---666----------------------------|---666----------------------------|
G|---777------------3-3-3-3-3-3-3-3-|---777-----------3-3-3-3-3-3-3-3--|
D|-0-777------------x-x-x-x-x-x-x-x-|-0-777-----------x-x-x-x-x-x-x-x--|
A|-0----------------1-1-1-1-1-1-1-1-|-0---------------1-1-1-1-1-1-1-1--|
D|-0--------------------------------|-0--------------------------------|

e|--------------------------------------|----------------------------------|
B|---666--------------------------------|---666----------------------------|
G|---777--------------------------------|---777------------3-3-3-3-3-3-3-3-|
D|-0-777----------------888-888-888-888-|-0-777------------x-x-x-x-x-x-x-x-|
A|-0--------------------888-888-888-888-|-0----------------1-1-1-1-1-1-1-1-|
D|-0--------------------888-888-888-888-|-0--------------------------------|


1:49
e|------------------------------------|
B|------------------------------------|
G|------------------------------------|
D|-0------0------0------0------0------|
A|-0------0------0------0------0------|
D|-0-x-xx-0-x-xx-0-x-xx-0-x-xx-0-x-xx-|

e|------------------------------------|
B|------------------------------------|
G|------------------------------------|
D|-0------0------0------0------0------|
A|-0------0------0------0------0------|
D|-0-x-xx-0-x-xx-0-x-xx-0-x-xx-0-x-xx-|

e|-----------------------------------|
B|-----------------------------------|
G|-----------------------------------|
D|-0------(0)----0------0------------|
A|-0------(0)----0------0------------|
D|-0-x-xx-(0)----0-x-xx-0-x-xx-------|


2:06
e|----------------------------------|------------------------------------|
B|----------------------------------|--------------------------------10--|
G|-----7-6--------------------------|----7-6-----------------------------|
D|---------8-7----7-7-----8-8---7-7-|--------8-7----7-7----8-8----10-----|
A|-5-----------8------/10-----8-----|-5----------8------10-----12--------|
D|----------------------------------|------------------------------------|


2:24
e|-------------------------------|
B|----3--------------------------|
G|------2----2-------3p2-2---2---|
D|-0-------3---3/5-5-------3---3-|
A|-------------------------------| 
D|-------------------------------|


2:53
e|-------------------------------|
B|----3--------------------------|
G|------2----2-------3p2-2---2---|
D|-0-------3---3/5-5-------3---3-|
A|-------------------------------| 
D|-------------------------------|


3:30
e|-----------------|
B|-----------------|
G|-----------------|
D|-----3/7----0----|
A|------------0----|
D|------------0----|
            
Submit corrections


        Sad Prayers For Guilty Bodies lessons Hard to play? Try these video lessons and learn fast Sad Prayers For Guilty Bodies lessons
        
↑ Back to top | Tablatures and chords for acoustic guitar and electric guitar, ukulele, drums are parodies/interpretations of the original songs. You may use it for private study, scholarship, research or language learning purposes only