» » »

La Dispute - Last Blues For Bloody Knuckles Tabs

Artists:  A B C D E F G H I J K L M N O P Q R S T U V W X Y Z # 

Last Blues For Bloody Knuckles Tabs

(ver. 3) Click to play this song!
La Dispute
 Rating:
4/5 (4 votes)

 Last Blues For Bloody Knuckles lessons Tabs too difficult? Try these video lessons and learn fast
 
                == GUITAR ONE ==

(0:00)
e|-5p0---7p0---8p0---8p0-12p0-|
B|----------------------------|
G|----------------------------|
D|--------------[x12]---------|
A|----------------------------|
D|----------------------------|


(1:18)
e|-12-----------------------------12-----------------------------------|
B|----13-12--------------------------13-12---------------------|-x6-|--|
G|----------14-----------|-x7-|------------14------------------12-14---|
D|-------------14--------12-14----------------14---------12-14---------|
A|-----------------12-15---------------------------12-15---------------|
D|---------------------------------------------------------------------|

e|-12-----------------------------12-----------------------------------|
B|----13-12--------------------------13-12---------------------|-x6-|--|
G|----------14-----------|-x7-|------------14------------------12-14---|
D|-------------14--------12-14----------------14---------12-14---------|
A|-----------------12-15---------------------------12-15---------------|
D|---------------------------------------------------------------------|


(1:43)
e|-12-----------------------------12-----------------------------------|
B|----13-12--------------------------13-12---------------------|-x6-|--|
G|----------14-----------|-x7-|------------14------------------12-14---|
D|-------------14--------12-14----------------14---------12-14---------|
A|-----------------12-15---------------------------12-15---------------|
D|---------------------------------------------------------------------|

e|-12-----------------------------12----15-----------------------------|
B|----13-12--------------------------13----12------------------|-x6-|--|
G|----------14-----------|-x7-|---------------14---------------12-14---|
D|-------------14--------12-14---------------------------12-14---------|
A|-----------------12-15---------------------------12-15---------------|
D|---------------------------------------------------------------------|


(2:08)
e|-15----------------------------15----------------------------------|
B|----16-15-------------------------16-15---------------------|-x6-|-|
G|----------17-----------|-x7-|-----------17------------------15-17--|
D|-------------17--------15-17---------------17---------15-17--------|
A|-----------------15-18--------------------------15-18--------------|
D|-------------------------------------------------------------------|

e|-15----------------------------15----18----------------------------|
B|----16-15-------------------------16----15------------------|-x6-|-|
G|----------17-----------|-x7-|--------------17---------------15-17--|
D|-------------17--------15-17--------------------------15-17--------|
A|-----------------15-18--------------------------15-18--------------|
D|-------------------------------------------------------------------|


(2:34)
e|-10-----------------------------10----13---------------------------|
B|----11----10-----------------------11----10-----------------|-x6-|-|
G|-------12--------------|-x7-|---------------12--------------10-12--|
D|-------------12--------10-12--------------------------10-12--------|
A|-----------------10-13--------------------------10-13--------------|
D|-------------------------------------------------------------------|

e|-10-----------------------------10----13---------------------------|
B|----11----10-----------------------11----10-----------------|-x6-|-|
G|-------12--------------|-x7-|---------------12--------------10-12--|
D|-------------12--------10-12--------------------------10-12--------|
A|-----------------10-13--------------------------10-13--------------|
D|-------------------------------------------------------------------|

e|-10-----------------------------10----13---------------------------|
B|----11----10-----------------------11----10-----------------|-x6-|-|
G|-------12--------------|-x7-|---------------12--------------10-12--|
D|-------------12--------10-12--------------------------10-12--------|
A|-----------------10-13--------------------------10-13--------------|
D|-------------------------------------------------------------------|


(3:21)
e|-----------------------------------------|
B|-----------------------------------------|
G|-----------------------------------------|
D|-----------------------------------[x2]--|
A|-----------------------------------------|
D|-55-5-5-5-55-5-5-5-55-5-5-5-55-55-5~-----|


(3:33)
e|---------------------------------------------------------------|
B|---------------------------------------------------------------|
G|---------------------------------------------------------------|
D|------5-3----3-5-------5-3---3-5-------------------------------|
A|----------3----------------3-----------------------------------|
D|--3-5--------------3-5------------3-5--5~----------------------|

e|---------------------------------------------------------------|
B|---------------------------------------------------------------|
G|---------------------------------------------------------------|
D|------7-5---5-7------7-5---5-7---------------------------------|
A|----------5--------------5-------------------------------------|
D|--5-7------------5-7-----------5-7--7~-------------------------|

e|---------------------------------------------------------------|
B|---------------------------------------------------------------|
G|---------------------------------------------------------------|
D|---------------7-------------7---------7----------14\--10\-----|
A|--------------------------------------------------14\--10\-----|
D|--3-5-6-7--7-7---10-7---7-10---7-----7---10-7-----14\--10\-----|


(3:57)
e|----------------------------------------------------------------------|
B|-(the rhythm here is complex but I think it's right)------------------|
G|----------------------------------------------------------------------|
D|-77-7777-777-7777-7-77-77757--77-5757-777-5757-7-77-77757-------------|
A|-77-7777-777-7777-7-77-77757--77-5757-777-5757-7-77-77757-------------|
D|-77-7777-777-7777-7-77-77757--77-5757-777-5757-7-77-77757-------------|

e|---------------------------------------------------------------|
B|---------------------------------------------------------------|
G|---------------------------------------------------------------|
D|-2-2222-222-2222-2-22-22/52~-0~--------------------------------|
A|-2-2222-222-2222-2-22-22/52~-0~--------------------------------|
D|-2-2222-222-2222-2-22-22/52~-0~--------------------------------|


(4:17)
e|---------------------------------------------------------------|
B|---------------------------------------------------------------|
G|-999999-99-99-9-9---999999-99-99-9-----------------------------|
D|-777777-77-77-7-7---777777-77-77-7--5~-------0~----------------|
A|-777777-77-77-7-7---777777-77-77-7--5~-------0~----------------|
D|------------------------------------5~-------0~----------------|

e|-----------------------------------------------------|
B|-----------------------------------------------------|
G|-999999-99-99-9-9---999999-99-99-9-------------------|
D|-777777-77-77-7-7---777777-77-77-7---2---0-000-0-000-|
A|-777777-77-77-7-7---777777-77-77-7---2---0-000-0-000-|
D|-------------------------------------2---0-000-0-000-|

e|---------------------------------------------------------------|
B|---------------------------------------------------------------|
G|-999999-99-99-9-9---999999-99-99-9---------------------9~------|
D|-777777-77-77-7-7---777777-77-77-7--55555555-0000000---7~------|
A|-777777-77-77-7-7---777777-77-77-7--55555555-0000000---7~------|
D|------------------------------------55555555-0000000-----------|




== GUITAR TWO ==

(0:00)
e|-~15~--~12~--~3~--~5~-|-~15~--~12~--~10~--~8~-|-~10~--~8~--~7~--~5~-|
B|----------------------|-----------------------|---------------------|
G|----------------------|-----------------------|---------------------|
D|----------------------|-----------------------|---------------------|
A|----------------------|-----------------------|---------------------|
D|----------------------|-----------------------|---------------------|


(0:56)
e|---------------------------------------------------------------|
B|---------------------------------------------------------------|
G|---9-7----5/7--------------------------------------------------|
D|--------------7---7/9----5-5-5/7-------------------------------|
A|----------------------7----------------------------------------|
D|-7-------------------------------------------------------------|


(1:16)
e|---------------------------------------------------------------|
B|-------------------(natural harmonic)--------------------------|
G|---------------------------------------------------------------|
D|-----------------------------7~~-------------------------------|
A|--x-x-x-x-x-x-x-x-x------------------------x-x-x-x-x-x-x-x-----|
D|---------------------------------------------------------------|


(1:43)
e|----------------|----------------------------------------------|
B|----------------|----------[x3]--------------------------------|
G|-----5---55-5---|------8-8-------------------------------------|
D|-----5h7-77-7---|-8h10-1010-10--10101010101010-----------------|
A|-----7---77-7---|-8----8-8--8---8-8-8-6-6-6-6------------------|
D|----------------|----------------------------------------------|


(2:57)
e|---------------------------------------------------------------|
B|---------------------------------------------------------------|
G|-------12-10------------------------------------------[x7]-----|
D|-------------10--8-10-------10---------------------------------|
A|-10-13----------------10-13----13-10--8-10--10-13--------------|
D|--------------------------------------------------12-----------|

e|---------------------------------------------------------------|
B|---------------------------------------------------------------|
G|-------14-12---------------------------------------------------|
D|-------------12--10-12-------12---------------------14---------|
A|-12-15-----------------12-15----15-12--10-12--12-15-14---------|
D|----------------------------------------------------14---------|

e|---------------------------------------------------------------|
B|---------------------------------------------------------------|
G|----------------14-12------------------------------------------|
D|----------------------12--10-12-13-14--12-10-12-10--14\-10\----|
A|----10-11-12-15-------------------------------------14\-10\----|
D|-14-------------------------------------------------14\-10\----|


(3:57)
e|----------------------------------------------------------------------|
B|----------------------------------------------------------------------|
G|-55-5555-555-5555-5-55-55555--55-5555-555-5555-5-55-55555-------------|
D|-77-7777-777-7777-7-77-77777--77-7777-777-7777-7-77-77777-------------|
A|-77-7777-777-7777-7-77-77777--77-7777-777-7777-7-77-77777-------------|
D|----------------------------------------------------------------------|

e|---------------------------------------------------------------|
B|---------------------------------------------------------------|
G|-9-9999-999-9999-9-99-99/12-9~---------------------------------|
D|-9-9999-999-9999-9-99-99/12-9~--0~-----------------------------|
A|-7-7777-777-7777-7-77-77/10-7~--0~-----------------------------|
D|--------------------------------0~-----------------------------|


(4:17)
e|---------------------------------------------------------------|
B|---------------------------------------------------------------|
G|-999999-99-99-9-9---999999-99-99-9--1212121212-77777-----------|
D|-999999-99-99-9-9---999999-99-99-9--x-x-x-x-x--00000-----------|
A|-777777-77-77-7-7---777777-77-77-7--1010101010-00000-----------|
D|-----------------------------------------------00000-----------|

e|-----------------------------------------------------|
B|-----------------------------------------------------|
G|-999999-99-99-9-9---999999-99-99-9---999-------------|
D|-999999-99-99-9-9---999999-99-99-9---xxx-0-000-0-000-|
A|-777777-77-77-7-7---777777-77-77-7---777-0-000-0-000-|
D|-----------------------------------------0-000-0-000-|

e|---------------------------------------------------------------|
B|---------------------------------------------------------------|
G|-999999-99-99-9-9---999999-99-99-9--1212121212-7777777---------|
D|-999999-99-99-9-9---999999-99-99-9--x-x-x-x-x--0000000---------|
A|-777777-77-77-7-7---777777-77-77-7--1010101010-0000000---------|
D|-----------------------------------------------0000000---------|

e|---------------------------------------------------------------|
B|---------------------------------------------------------------|
G|-999999-99-99-9-9---999999-99-99-9-----------------------------|
D|-999999-99-99-9-9---999999-99-99-9-----------------------------|
A|-777777-77-77-7-7---777777-77-77-7-----------------------------|
D|---------------------------------------------------------------|

e|---------------------------------------------------------------|
B|---------------------------------------------------------------|
G|-999999-99-99-9-9---999999-99-99-9-----------------------------|
D|-999999-99-99-9-9---999999-99-99-9-----------------------------|
A|-777777-77-77-7-7---777777-77-77-7-----------------------------|
D|---------------------------------------------------------------|

            
Submit corrections


        Last Blues For Bloody Knuckles lessons Hard to play? Try these video lessons and learn fast Last Blues For Bloody Knuckles lessons
        
↑ Back to top | Tablatures and chords for acoustic guitar and electric guitar, ukulele, drums are parodies/interpretations of the original songs. You may use it for private study, scholarship, research or language learning purposes only